» » »

H20, Role Model Bass tabs (ver.1)

Artists:  A B C D E F G H I J K L M N O P Q R S T U V W X Y Z # 

Role Model Bass tabs (ver.1)

H20 Tabs
Rating:
0/5 (0 votes)
Role Model lessons Tabs too difficult? Try these video lessons and learn fast
                Intro
Play 3x                                On 4th time play this
G|------------------------------|      |--------------------------------| 
D|------------------------------|      |--------------------------------| 
A|-3333--5555--8-8-8-8-8-8--7-5-|      |-33--55-------------------------|  
E|------------------------------|      |---------11111111---------------|

Verse
G|------------------------------------------------------|
D|------------------------------------------------------|
A|-----3-----------3-----------3-------5------222-333---|
E|-000---3333--000---3333--000---3333----5555-----------|

Pre-Chorus
G|------------------------------------------------------|
D|-------------------------------------------3333-2-0---|
A|-------5555------3333-2-0--------5555-----------------|
E|-33333------1111-----------33333------1111------------|

Chorus
Play 3x                                On 4th time play this
G|------------------------------|      |--------------------------------| 
D|------------------------------|      |--------------------------------| 
A|-3333--5555--8-8-8-8-8-8--7-5-|      |-33--55-------------------------|  
E|------------------------------|      |---------11111111---------------|

Breakdown
G|------------------------------------------------------| 
D|------------------------------------------------------| 
A|-3333-5555--------3333-5555--------33-55--------------| 
E|-----------111111-----------111111-------111111-------|

Interlude 
G|-----------------------| 
D|-----------------------| x2 
A|-3333------------------| 
E|------0000-1111-3333---|
            

comments powered by Disqus
↑ Back to top | H20 Bass for Role Model. Lyrics for acoustic guitar and electric guitar. Tablatures and chords are parodies/interpretations of the original songs. You may use it for private study, scholarship, research or language learning purposes only