» » »

H20, Responsible Bass tabs (ver.1)

Artists:  A B C D E F G H I J K L M N O P Q R S T U V W X Y Z # 

Responsible Bass tabs (ver.1)

H20 Tabs
Rating:
0/5 (0 votes)
Responsible lessons Tabs too difficult? Try these video lessons and learn fast
                                           RESPONSIBLE - H2O



(listen for the timing - its not hard)
Intro
G-----------------------------------10-10-10-10-10-------
D-9-9-9-7-6--------------9-9-9-7-6-----------------------   x2
A------------7-7-7-7-7-----------------------------------
E--------------------------------------------------------


Verse
G---------------------------------------------------------------------
D---------------------------------------------------------------------   x2
A-----------3-2--------------------3-2-5-5-5-5-5----------------------
E-5-5-5-5-5-----3-3-3----5-5-5-5-5------------------------------------


Chorus
G---------------------------------------------------------------------
D---------------------------------------------------------------------   x2
A-7-3-7-7-7-3-5---7-7-7-5-3-2-2-2-2-----------------------------------
E---------------------------------------------------------------------

G---------------------------------------------------------------------
D----------------5-3-2-3-2--------------------------------------------
A-----2-3-5-3--2-----------5-3----------------------------------------
E-1-3--------------------------1-1-1-3-3-3----------------------------

G---------------------------------------------------------------------
D---------------------------------------------------------------------
A-8-8-8-8-----7-7-7-7-----5-5-5-5-------------------------------------
E---------------------------------------------------------------------

G---------------------------------------------------------------------
D---------------------------------------------------------------------
A-8-10-8---10-12-10---8-10-8---12-12-12-10----------------------------
E---------------------------------------------------------------------


Outro
G---------------------------------------------------------------------
D---------------------------------------------------------------------
A-12--10--9--7--12----------------------------------------------------
E---------------------------------------------------------------------

G-----------------------------------10-10-10-10-10-------
D-9-9-9-7-6--------------9-9-9-7-6-----------------------   x2
A------------7-7-7-7-7-----------------------------------
E--------------------------------------------------------
            

comments powered by Disqus
↑ Back to top | H20 Bass for Responsible. Lyrics for acoustic guitar and electric guitar. Tablatures and chords are parodies/interpretations of the original songs. You may use it for private study, scholarship, research or language learning purposes only