» » »

Nazi Punks F*Ck Off Tabs (ver.1)

Artists:  A B C D E F G H I J K L M N O P Q R S T U V W X Y Z # 

Nazi Punks F*Ck Off Tabs (ver.1)

H20
Rating:
0/5 (0 votes)

Hard to play? Try these video lessons and learn fast.
                Intro & Verse 1 (2x)

Play all notes 2x
e|-------------------|
B|-------------------|
G|-8-8-8-------------|
D|-8-8-8-10-8-8-8-10-|
A|-6-6-6-10-8-8-8-10-|
E|-------8--6-6-6-8--|

Chorus 2x (Nazi punks, Nazi punks...)

All notes 2x
e|---------------------------|
B|---------------------------|
G|-------------------------8-|
D|-8-10-10-8-10-10-8-10-10-8-|
A|-8-10-10-8-10-10-8-10-10-6-|
E|-6-8--8--6-8--8--6-8--8----|


All notes 2x
e|-----------------------------------|
B|-----------------------------------|
G|-8-------8-------8-----------------|
D|-8-10-10-8-10-10-8-10-10-8-8-10-10-|
A|-6-10-10-6-10-10-6-10-10-8-8-10-10-|
E|---8--8----8--8----8--8--6-6-8--8--|

Outro 
e|------------------|
B|------------------|
G|-8----------------|
D|-8--10--10---8-10-|
A|-6--10--10---8-10-|
E|----8---8----6-8--|
            
Hard to play? Try these video lessons and learn fast. | Correct




comments powered by Disqus
↑ Back to top | Tablatures and chords are parodies/interpretations of the original songs. You may use it for private study, scholarship, research or language learning purposes only