» » »

Memory Lane Bass tabs (ver.1)

Artists:  A B C D E F G H I J K L M N O P Q R S T U V W X Y Z # 

Memory Lane Bass tabs (ver.1)

H20
Rating:
0/5 (0 votes)

Hard to play? Try these video lessons and learn fast.
                Intro/Verse

G-----------------------------------------------------:
D-----------------------------------------------------:
A-----14----14----14----14-/------14----14----14----14:
E--12----12----12----12---/-9--12----12----12----12---:

G:-----------------------------|
D:-----------------------------|
A:----9---9---9---9---9---9---9|
E:--7---7---7---7---7---7---7--|

Chorus

G---------------------------------------------------
D---------------------------------------------------
A---4444444444444444----------------7777777777777777
E-------------------5555555555555555----------------

Bridge

G---------------------------
D---------------------------
A--------------------------7
E--7-5-7-5--3-5--3-5---5-7--


Order

Intro/verse
Chorus
Verse
Chorus
Bridge
Chorus
Intro
Chrous
            
Hard to play? Try these video lessons and learn fast. | Correct




comments powered by Disqus
↑ Back to top | Tablatures and chords are parodies/interpretations of the original songs. You may use it for private study, scholarship, research or language learning purposes only