» » »

Faster Than The World Bass tabs (ver.1)

Artists:  A B C D E F G H I J K L M N O P Q R S T U V W X Y Z # 

Faster Than The World Bass tabs (ver.1)

H20
Rating:
0/5 (0 votes)

Hard to play? Try these video lessons and learn fast.
                -H20
-Faster Than the World
-Dayne Francom


INTRO:
G|----------7--5-----------------------------------------
D|---------------7-6-5-----7-7-----------------7-7-------
A|-5-2-----------------8-5-----7-777-5-0-7-777-----7-777-
E|-----00------------------------------------------------

G|-7—-5------------
D|------7-6-5------
A|------------8-5--
E|-----------------

VERSE:X2
G|-------------------------------7—-5-----------             
D|-7-7-----------------7-7------------7-6-5-----
A|-----7-777-5-0-7-777-----7-777------------8-5-
E|----------------------------------------------

CHORUS:
G|----------------------------------------------
D|----------------------------------------------
A|-7---5-000-7---5-000-7---5-000----------------
E|---7---------7---------7--------3-5-0---------

VERSE2:X2
G|-------------------------------7—-5-----------             
D|-7-7-----------------7-7------------7-6-5-----
A|-----7-777-5-0-7-777-----7-777------------8-5-
E|----------------------------------------------

CHORUS:X2
G|----------------------------------------------
D|----------------------------------------------
A|-7---5-000-7---5-000-7---5-000------7-RING----
E|---7---------7---------7--------3-5-----------

BRIDGE:
G|--------------5-7-5-7-9---------9-7-------------------
D|------------------------------------9-8-7-------------
A|------------------------------------------10-7--------
E|-0—-3-5-0---0-----------3-5-0------------------3-5-0—

G|---5/7-5-7-9--------------------------------9-7---------------------
D|------------------------2-0---------------------9-8-7---------------
A|----------------------------2-1-----------------------10-7----------
E|-0------------0-00-000----------4-0-00-000-----------------0-00-000-

G|-9-7----------------------------------------------------------------
D|-----9-8-7----------------------------------------------------------
A|-----------10-7—-7---5-555-7---5-555---------------------7---5-555—-
E|-------------------7---------7-------3-5-0-000-3-5-0-000---7--------

G|--------------------------------------------------------------------
D|--------------------------------------------------------------------
A|-7---5-555----------------------------------------------------------
E|---7--------3-5-0-000-3-5-0-000-------------------------------------


VERSE3:X2
G|-------------------------------7—-5-----------             
D|-7-7-----------------7-7------------7-6-5-----
A|-----7-777-5-0-7-777-----7-777------------8-5-
E|----------------------------------------------

CHORUS:
G|----------------------------------------------
D|----------------------------------------------
A|-7---5-000-7---5-000-7---5-000----------------
E|---7---------7---------7--------3-5-0-0-0-0-0-

G|--------------------------------------9-------
D|----------------------------------------------
A|-7---5-000-7---5-000-7---5-000----------------
E|---7---------7---------7--------3-5-----------

ENDING: play the bridge over and over for as long as you like.

This tab is correct. He uses mostly just scales. If you already know these scales the song becomes easy. If u don’t it might take a little longer. Have fun!
            
Hard to play? Try these video lessons and learn fast. | Correct




comments powered by Disqus
↑ Back to top | Tablatures and chords are parodies/interpretations of the original songs. You may use it for private study, scholarship, research or language learning purposes only