» » »

Everready Bass tabs (ver.1)

Artists:  A B C D E F G H I J K L M N O P Q R S T U V W X Y Z # 

Everready Bass tabs (ver.1)

H20
Rating:
0/5 (0 votes)

Hard to play? Try these video lessons and learn fast.
                
This is all in standard tuning, and is all pretty easy. Sounds best played
with a pick, like pretty much all punk rock. Have fun!

IMPORTANT NOTE:
for the rhythm during the verses and chorus, I just used the root notes
as quarter notes, since rhythm is hard to tab out. Its best to listen to
the song and figure out the rhythm in which they are played, otherwise its
gonna sound really lame.

Intro
G:------------------ 
D:------------------ repeat x5
A:--2---------------
E:--------4---2-----

G:-------------------|
D:-------------------|
A:--2------5--4--2---|
E:-------------------|

Verse
G:----------------------------------------------------------------|
D:----------------------------------------------------------------|
A:----------0-0-0-0--2-2-2-2-2-2-2-2---------0-0-0-0---------0-0--|
E:--2-2-2-2--------------------------2-2-2-2---------0-0-0-0------|

Chorus
G:----------------------------------------------------------|
D:----------------------------------------------------------|
A:-2-2-2-2-2-2-2-2-----------------2-2-2-2-2-2-2-2-5--4--2--|
E:-----------------4-4-4-4-2-2-2-2--------------------------|

Chorus Variation
G:-------------------------------------------------------------|
D:-------------------------------------------------------------|
A:-2-2-2-2-2-2-2-2-----------------2-2-2-2-2-2-2-2-------------|
E:-----------------4-4-4-4-2-2-2-2-----------------2--4--5--4--|

Bridge
G:--------------------------------------------|
D:--------------------------------------------|
A:-----------------------------------5--4--2--|
E:--2--4--5----2--4--5----2--4--5-------------|

Solo
G:-------------------------------------------------------------------|
D:-------------------------------------------------------------------|
A:----------0-0-0-0-2-2-2-2-2-2-2-2--------0-0-0-0------------0-0-0--|
E:--2-2-2-2-------------------------2-2-2-2---------0-0-0-0-0--------|

Ending
G:--------------------|
D:--------------------|
A:------------2-------|
E:--2--4--5-----------|



Please realize that if you request a song for me to tab out that the odds of 
me tabbing it are not so high, consittering it takes a good deal of time.
But feel free to ask anyway! I'll still try my best.
            
Hard to play? Try these video lessons and learn fast. | Correct




comments powered by Disqus
↑ Back to top | Tablatures and chords are parodies/interpretations of the original songs. You may use it for private study, scholarship, research or language learning purposes only