>
 >
Puente

Puente Bass Tabs

Gustavo Cerati - Puente chords, tabs, tablatures, lyrics

Guitar lessons | Add/correct | Request | Top 50 tabs Artists:  A B C D E F G H I J K L M N O P Q R S T U V W X Y Z 0-9

Puente Bass Tabs – Gustavo Cerati

CD, Sheet music, Poster

Do you like Puente? Share with your friends now
Bass TabsChordsChords v2Chords v3Ukulele
++++++++++++++++++++++++++
| Gustavo Cerati- Puente |
++++++++++++++++++++++++++


"Desordené atomos tuyos para hacerte aparecer..."

Tuning: EADG


Va dedicada completamente a
mi amore la Gaby
Ella sabe porke...
Esta song means a lot to us (L)


Intro
1.
G|---------------------------------------------------------|
D|-3~--------------0h1~--------3~--------------0h1~--------|
A|-----------3~--------------------------3~----------------|
E|---------------------------------------------------------|

2.
G|---------------------------------------------------------|
D|-3~--------------0h1~--------3~--------------0h1~--------|
A|-----------3~--------------3-----------3~----------------|
E|---------------------------------------------------------|

Verse
"Hoy te busqué..."
3.
G|---------------------------------------------------------|
D|-3~--------------0h1~--------3~--------------0h1~--------|
A|-----------3~--------------------------3~--------------3-|
E|---------------------------------------------------------|

"Si algo callé..."
4.
G|---------------------------------------------------------|
D|-3~--------------0h1~--------3~--------------0h1~--------|
A|-----------3~--------------------------3~----------------|
E|---------------------------------------------------------|

Pre-Chorus
"Desordené atomos tuyos..."
5.
G|--------------------------------------------0--|
D|-------1~----0~--------------------3~----1-----|
A|-------------------4~----3~--------------------|
E|-3~--------------------------------------------|

"Un día mas..."
6.
G|-----------------------------|
D|-----------------------------|
A|-1~----0~----------3~--------|
E|-------------3~--------------|

"Arriba el sol..."
7.
G|-----------------------------------------------------------|
D|-3~--------------0h1~--------3~----0~----------0h1~--------|
A|-----------3~----------------------------3~--------------3-|
E|-----------------------------------------------------------|

"Ya estas aquí..."
8.
G|-----------------------------------------------------------|
D|-3~--------------0h1~--------3~----0~----------0h1~--------|
A|-----------3~--------------3-------------3~----------------|
E|-----------------------------------------------------------|

Pre-Chorus
"Cruza el amor..."
9.
G|-------------------------------------|
D|-------1~----0~----------------------|
A|-------------------2~----------------|
E|-3~----------------------------------|

Chorus
"Y gracias por venir..."
10.
G|-----------------------------------------------------------|
D|-----------------------------------------------------------|
A|-----1~------1~------1~------1~------1~------1~------------|
E|-1~------3~------1~------3~------1~------3~------3~--------| 

Outro
"Adorable puente..."
11.
G|---------------------------------------------------------------|
D|-------0~--------------------0~--------------------0~----------|
A|-3~----------1~--------3~----------1~--------3~----------1~----|
E|---------------------------------------------------------------|

Bridge
12.
G|-------------------|
D|-3~----------------|
A|-------------------|
E|-------------------|

13.
G|-----------------------------------------------------------|
D|-3~--------------0h1~--------3~----0~----------0h1~--------|
A|-----------3~----------------------------3~----------------|
E|-----------------------------------------------------------|

Pre-Chorus
"Cruza el amor..."
14.
G|-----------------------------------------|
D|-------1~----5h7-5-3-2-------------------|
A|-----------------------2~----------------|
E|-3~--------------------------------------|

Chorus
"Y gracias por venir..."
15.
G|-----------------------------------------------------------------|
D|-----------------------------------------------------------------|
A|-----1~------1~------1~------1~------1~------1~------1~------1~--|
E|-1~------3~------1~------3~------1~------3~------1~------3~------| 

"Gracias por venir..."
16.
G|-----------------------------------------------------------------|
D|-----------------------------------------------------------------|
A|-----1~------1~------1~------1~------1~------1~------1~------1~--|
E|-1~------3~------1~------3~------1~------3~------1~------3~------| 

17.
G|-----------------------------------------------------------------|
D|-----------------------------------------------------------------|
A|-----1~------1~------1~------1~------1~------1~------1~------1~--|
E|-1~------3~------1~------3~------1~------3~------1~------3~------| 

18.
G|-----------------------------------|
D|-----------------------------------|
A|-----1~------1~--------------------|
E|-1~------3~------3~----------------| 

Outro
19.
G|---------------------------------------------------------|
D|-------0~--------------------0~----------3~----1~--------|
A|-3~----------1~--------3~----------1~--------------------|
E|---------------------------------------------------------|

"Cruza el amor..."
20.
G|-------------------------------------------------|
D|-------------------------------------------------|
A|-1~----0~----------3~----1~----0~----------3~----|
E|-------------3~----------------------3~----------|

"Usa el amor..."
21.
G|-------------------------------------------------|
D|-------------------------------------------------|
A|-1~----0~----------3~----1~----0~----------3~----|
E|-------------3~----------------------3~----------|

22.
G|---------------------------------------------------|
D|---------------------------------3~----------------|
A|-3~------------------------------------------------|
E|---------------------------------------------------|


Lyrics:


Hoy te busqué en la rima que duerme
Con todas las palabras
Si algo callé es porque entendí todo
Menos la distancia

Desordené atomos tuyos para hacerte aparecer...
Un día mas, un día mas

Arriba el sol, abajo el reflejo
Ve como estalla mi alma
Ya estas aquí y el paso que dimos
Es causa y es efecto

Cruza el amor, yo cruzaré los dedos...
Y gracias por venir, gracias por venir

Adorable puente se ha creado entre los dos

Cruza el amor, cruza el amor por el puente
Usa el amor, usa el amor como un puente



+++++++++++++++++++++++++++++++++
| RaiLeff                       |
+++++++++++++++++++++++++++++++++





Comments


Popular Gustavo Cerati tabs & chords
Avenida Alcorta Chords
Engaca Chords
Lago En El Cielo Chords
Rombos Chords
Deja Vu Tabs
Lago En El Cielo Intro Tabs
Colores Santos Ukulele
Lisa Ukulele
Sudestada Ukulele
Vuelta Por El Universo Ukulele


Song lyrics



↑ Back to top | Tablatures and chords are parodies/interpretations of the original songs. You may use it for private study, scholarship, research or language learning purposes only
© 2014 AZChords.com Contact us | Privacy policy | DMCA | Add/correct tabs | Request tabs | Top 50 tabs