» » »

Fuerza Natural Chords (ver.1)

Artists:  A B C D E F G H I J K L M N O P Q R S T U V W X Y Z # 

Fuerza Natural Chords (ver.1)

Gustavo Cerati
Rating:
0/5 (0 votes)

Hard to play? Try these video lessons and learn fast.
                El acorde G6/4/B es como un C pero sin el dedo del medio
Intro:

RIFF 1
E |----------------9-----------------------------------|
B |-------------------10---7-6--------8----------7-----|
G |-------------9------------------7-------------------| (12 veces)
D |----------7------------------5-------------7--------|
A |---------------------------------------5------------|
E |----------------------------------------------------|

Em           C
Puedo equivocarme
       D
Tengo todo por delante
        A
Y nunca me sentí tan bien
Em           G6/4/B
Viajo sin moverme de aquí
D
Chicos del espacio
         A
Están jugando en mi jardín
Gm    Dm Gm   Dm Gm            Dm
Me diran el azar con el viento

Fuerza natural

RIFF 1

(y me eche a la suerte) (Ahhhh)

Em           C
Nena, no volvió el ayer
D
Me puse delante
        A
De mis ojos para ver
Em            G6/4/B
Chispas de oscuridad
D
No es tan importante
        A
Se que dios es bipolar
Gm    Dm Gm       Dm Gm                Dm
Cambiara como el mar lo que siento

Es algo natural

G F C   G F C    G
RIFF 2
E |-----------------------------------------------|
B |-----------------------------------------------|
G |-----------------------------------------------| 
D |-----------------------------------------------|
A |----8--7--5----5--7------5--7-----5------------|
E |--------------------7---------5----------------|


G F C  x4 (Cada vez mas fuerte)(ahhhh)

F            G       F          G
Voy pisando fósiles, no me dejaran caer
F               G         F        G
Un mundo microscópico me sostiene de los pies
G           A            G         A
Naves como nubes cambian de velocidad
G            A         G          A
Mis pupilas dilatando otra noche mas
Gm    Dm  Gm    Dm      
Mas azul es la luz
Gm           Dm
Si me alejo

Fuerza natural

RIFF 3
E |---------------------------------|
B |---------------------------------|
G |---------------------------------| (12 veces)
D |---------------------------------|
A |-----3--2------5-----------------|
E |--5--------3---------------------|

(Desde la octava vez acompañar con el riff 1)

A     G        D     A
Me perdí en el viaje
      G     D     A    G  D
Nunca me sentí tan bien

A G D

A     G        D     A
Me perdí en el viaje
      G     D     A    G  D
Nunca me sentí tan bien

A G D

A     G     D   A
Todo por delante
       G     D     A  G  D
Todo esta hablándome

A G D

A        G       D    A
Esta cambiando el aire
      G     D     A    G  D
Nunca me sentí tan bien

A G D

na na ....

Ending: riff 1  (2 veces)

Dedicado para mi amor Angela que me da su fuerza natural :) KEC
            
Hard to play? Try these video lessons and learn fast. | Correct




comments powered by Disqus
↑ Back to top | Tablatures and chords are parodies/interpretations of the original songs. You may use it for private study, scholarship, research or language learning purposes only