>
 >
Deja Vu

Deja Vu Guitar Tabs

Gustavo Cerati - Deja Vu chords, tabs, tablatures, lyrics

Guitar lessons | Add/correct | Request | Top 50 tabs Artists:  A B C D E F G H I J K L M N O P Q R S T U V W X Y Z 0-9

Deja Vu Guitar Tabs – Gustavo Cerati

CD, Sheet music, Poster

Do you like Deja Vu? Share with your friends now
ChordsTabsUkulele
Armonizado en Fa menor
Tempo 4/4 
Beat 140 bpm

Efectos naturales:
b, bend, jalar la cuerda hacia arriba para subir el tono
   12b(13) tocas en 12 y jalas la cuerda hasta subir un tono
   completo, osea 14.

r, release, habiando previamente un bend aplicado, se regresa
   la cuerda a su lugar (13)r12 habiendo un bend aplicado en 12.
   el cual subio a 13, se regresa nuevamente a 12.

/, slide, tocas nota y deslizas el dedo hacia otra (9/7)
   tocas en 9 y deslizas hacia 7.

p, pull off, tocas una nota, luego sueltas hacia otra (9p7)
   tocas en 9, sueltas hacia el 7.

h, hammer on, tocas una nota, martillas hacia otra (7h9)
   tocas en 7, martilleas al 9.

~, vibrato, aplicas un bend de arriba hacia abajo 
   para que la nota vibre.

x, palm mute, la nota se toca sin presionar firmemente la cuerda,
   lo que le da un efecto de sonar "mudo". En esta cancion,
   este efecto es primordial para el ritmo, pues cada dos notas
   son tocadas en contraparte por dos rasgueos mudos.

ritmo, los acordes se tocan con rasgueo abajo, rasgueo arriba,
       luego mute al acorde y se tocan igual los rasgueos, asi
       durante los versos.

Nota: Los acordes acompañados por un parentesis tienen un numero
      romano, que indica el traste en donde se toca el acorde: 
      Fm(VIII), se refiere a tocar acorde Fm con cejila en traste 8.

      El tab viene acompañado de la letra, indicando en donde se 
      canta exactamente junto con la cancion. También inclui el 
      nombre que me parecio mas apropiado para cada acorde, siendo 
      que todos los acordes se tocan con cejillas.


   VERSO 1.

    Fm(VIII)              C#(IX)
||  -8--8--X-X-8--8--X-X-|-9--9--X-X-9--9--X-X-|
||  -9--9--X-X-9--9--X-X-|-9--9--X-X-9--9--X-X-|
||O -10-10-X-X-10-10-X-X-|-10-10-X-X-10-10-X-X-|
||O -10-10-X-X-10-10-X-X-|-11-11-X-X-10-10-X-X-|
||  -8--8--X-X-8--8--X-X-|-11-11-X-X-11-11-X-X-|
||  ---------------------|-9--9--X-X-9--9--X-X-|
              Veo las co---sas       co-mo
              Va---mos de  fue-go en fue-go hip...


                     (remate de acordes)
   Fm(VIII)    Fsus2 Fm  F7sus4 Fm
 |-8--8--X-X-8---8---8---8------8---8----8--8--  ||
 |-9--9--X-X-9---8---9---11-----9---9----9--9--  ||
 |-10-10-X-X-10--10--10--8------10--10---10-10- O||
 |-10-10-X-X-10--10--10--10-----10--10---10-10- O||
 |-8--8--X-X-8---8---8---8------8---8----8--8--  ||
 |---------------------------------------------  ||X2
   son.
...notizandonos.


Fm(VIII)   C#(IX)   Fm(VIII) Fsus2(VIII)Fm(VIII)F7sus4(VIII)Fm(VIII)
 Veo las cosas como son
Fm(VIII)  C#(IX)              Fm(VIII)  Remate de acordes.
 Vamos de fuego en fuego, hipnotizandonos


     G#(VIII)              Cm(VIII)
||  -8--8--X-X-8--8--X-X-|-8--8--X-X-8--8--X-X-  ||
||  -9--9--X-X-9--9--X-X-|-8--8--X-X-8--8--X-X-  ||
||O -8--8--X-X-8--8--X-X-|-8--8--X-X-8--8--X-X- O||
||O -10-10-X-X-10-10-X-X-|-10-10-X-X-10-10-X-X- O||
||  -11-11-X-X-11-11-X-X-|-10-10-X-X-10-10-X-X-  ||
||  ---------------------|-8--8--X-X-8--8--X-X-  ||X2
           Y a  ca-da  pa-so         sien-tes
     o----tro   de--ja     vu,            ¡Oh, 


   D#(III)
 |-3-3-X-X-3-3-X-X-|-3-3-X-X-3-3--------|
 |-4-4-X-X-4-4-X-X-|-4-4-X-X-4-4--------|
 |-3-3-X-X-3-3-X-X-|-3-3-X-X-3-3--11\\\-|
 |-5-5-X-X-5-5-X-X-|-5-5-X-X-5-5--11\\\-|
 |-6-6-X-X-6-6-X-X-|-6-6-X-X-6-6--------|
 |-----------------|--------------------|
   no! 


G#(VIII)  Cm(VIII)     G#(VIII)  Cm(VIII)       D#(III)
 Y a cada paso sientes otro deja vu,       ¡Oh, no!
     

   VERSO 2.

    Fm(VIII)              C#(IX)
||  -8--8--X-X-8--8--X-X-|-9--9--X-X-9--9--X-X-|
||  -9--9--X-X-9--9--X-X-|-9--9--X-X-9--9--X-X-|
||O -10-10-X-X-10-10-X-X-|-10-10-X-X-10-10-X-X-|
||O -10-10-X-X-10-10-X-X-|-11-11-X-X-10-10-X-X-|
||  -8--8--X-X-8--8--X-X-|-11-11-X-X-11-11-X-X-|
||  ---------------------|-9--9--X-X-9--9--X-X-|
              Si--mi--li---tu--des   que   so...
              Lugares que no-e--xis--ten,


   Fm(VIII)    Fsus2 Fm  F7sus4 Fm
 |-8--8--X-X-8---8---8---8------8---8----8--8--  ||
 |-9--9--X-X-9---8---9---11-----9---9----9--9--  ||
 |-10-10-X-X-10--10--10--8------10--10---10-10- O||
 |-10-10-X-X-10--10--10--10-----10--10---10-10- O||
 |-8--8--X-X-8---8---8---8------8---8----8--8--  ||
 |---------------------------------------------  ||X2
...ñas.
   vuelves a pasar.


Fm(VIII) C#(IX)      Fm(VIII) Remate de acordes.
   Similitudes que soñas
Fm(VIII)     C#(IX)      Fm(VIII)    Remate de acordes.
 Lugares que no existen, vuelves a pasar


     G#(VIII)              Cm(VIII)
||  -8--8--X-X-8--8--X-X-|-8--8--X-X-8--8--X-X-  ||
||  -9--9--X-X-9--9--X-X-|-8--8--X-X-8--8--X-X-  ||
||O -8--8--X-X-8--8--X-X-|-8--8--X-X-8--8--X-X- O||
||O -10-10-X-X-10-10-X-X-|-10-10-X-X-10-10-X-X- O||
||  -11-11-X-X-11-11-X-X-|-10-10-X-X-10-10-X-X-  ||
||  ---------------------|-8--8--X-X-8--8--X-X-  ||X2
             E--rro--res   op---ti------cos del
     tiem--po  y  de  la  luz,            ¡Oh,


   D#(III)
 |-3-3-X-X-3-3-X-X-|-3-3-X-X-3-3-X-X-|
 |-4-4-X-X-4-4-X-X-|-4-4-X-X-4-4-X-X-|
 |-3-3-X-X-3-3-X-X-|-3-3-X-X-3-3-X-X-|
 |-5-5-X-X-5-5-X-X-|-5-5-X-X-5-5-X-X-|
 |-6-6-X-X-6-6-X-X-|-6-6-X-X-6-6-X-X-|
 |-----------------|-----------------|
   no! 


G#(VIII) Cm(VIII)    G#(VIII)       Cm(VIII)  D#(III)
 Errores opticos del tiempo y de la luz, ¡Oh, no!


   CORO.
   
||  -----------------10-10--  ||   ||  ------------------11-11--  ||
||  -------9-9-11-11--------  ||   ||  --------9-9-11-11--------  ||
||O -10-10------------------ O||   ||O --10-10------------------ O||
||O ------------------------ O||   ||O ------------------------- O||
||  ------------------------  ||   ||  -------------------------  ||
||  ------------------------  ||   ||  -------------------------  ||
||                            ||   ||                             ||
||   A#5(VI)                  ||   ||  C#5(IV)                    ||
||  ------------------------  ||   ||  -------------------------  ||
||  ------------------------  ||   ||  -------------------------  ||
||O ------------------------ O||   ||O ------------------------- O||
||O ------------------------ O||   ||O -6--6--6--6--6--6--6--6-- O||
||  -8--8--8--8--8--8--8--8-  ||   ||  -4--4--4--4--4--4--4--4--  ||
||  -6--6--6--6--6--6--6--6-  ||x2 ||  -------------------------  ||X2

 A#5(VI)           C#5(IV)
 Tanto pediste retener ese momento de pla...


||  ---------8-8-11-11-  ||   ||  ---------------11-11-  ||
||  -----9-9-----------  ||   ||  -----8-8-11-11-------  ||
||O -8-8--------------- O||   ||O -8-8----------------- O||
||O ------------------- O||   ||O --------------------- O||
||  -------------------  ||   ||  ---------------------  ||
||  -------------------  ||   ||  ---------------------  ||
||                       ||   ||                         ||
||   G#5(IV)             ||   ||   D#5(VI)               ||
||  -------------------  ||   ||  ---------------------  ||
||  -------------------  ||   ||  ---------------------  ||
||O ------------------- O||   ||O --------------------- O||
||O ------------------- O||   ||O -8-8--8-8--8-8--8-8-- O||
||  -6-6-6-6--6-6-6-6--  ||   ||  -6-6--6-6--6-6--6-6--  ||
||  -4-4-4-4--4-4-4-4--  ||X2 ||  ---------------------  ||X2

G#5(IV)  D#5(VI)
...cer.  Antes de que sea tarde.


||  -----------------10-10--  ||   ||  ------------------11-11--  ||
||  -------9-9-11-11--------  ||   ||  --------9-9-11-11--------  ||
||O -10-10------------------ O||   ||O --10-10------------------ O||
||O ------------------------ O||   ||O ------------------------- O||
||  ------------------------  ||   ||  -------------------------  ||
||  ------------------------  ||   ||  -------------------------  ||
||                            ||   ||                             ||
||   A#5(VI)                  ||   ||  C#5(IV)                    ||
||  ------------------------  ||   ||  -------------------------  ||
||  ------------------------  ||   ||  -------------------------  ||
||O ------------------------ O||   ||O ------------------------- O||
||O ------------------------ O||   ||O -6--6--6--6--6--6--6--6-- O||
||  -8--8--8--8--8--8--8--8-  ||   ||  -4--4--4--4--4--4--4--4--  ||
||  -6--6--6--6--6--6--6--6-  ||x2 ||  -------------------------  ||X2

 A#5(VI)              C#5(IV)
 Vuelve la misma sensacion, esta canción ya escri...


||  ---------8-8-11-11-  ||   ||  ---------------11-11-  ||
||  -----9-9-----------  ||   ||  -----8-8-11-11-------  ||
||O -8-8--------------- O||   ||O -8-8----------------- O||
||O ------------------- O||   ||O --------------------- O||
||  -------------------  ||   ||  ---------------------  ||
||  -------------------  ||   ||  ---------------------  ||
||                       ||   ||                         ||
||   G#5(IV)             ||   ||   D#5(VI)               ||
||  -------------------  ||   ||  ---------------------  ||
||  -------------------  ||   ||  ---------------------  ||
||O ------------------- O||   ||O --------------------- O||
||O ------------------- O||   ||O -8-8--8-8--8-8--8-8-- O||
||  -6-6-6-6--6-6-6-6--  ||   ||  -6-6--6-6--6-6--6-6--  ||
||  -4-4-4-4--4-4-4-4--  ||X2 ||  ---------------------  ||X2

G#5(IV)   D#5(VI)                 
...ibio.  Hasta el mínimo detalle.


   VERSO 3.

   F5
 |-----------------|-----------------|
 |-----------------|-----------------|
 |-----------------|-----------------|
 |-3-3-3-3-3-3-3-3-|-3-3-3-3-3-3-3-3-|
 |-3-3-3-3-3-3-3-3-|-3-3-3-3-3-3-3-3-|
 |-1-1-1-1-1-1-1-1-|-1-1-1-1-1-1-1-1-|
       Mira  el  reloj,  se derritio


   Fm(VIII)    Fsus2 Fm  F7sus4 Fm
 |-8--8--X-X-8---8---8---8------8---8----8--8--|
 |-9--9--X-X-9---8---9---11-----9---9----9--9--|
 |-10-10-X-X-10--10--10--8------10--10---10-10-|
 |-10-10-X-X-10--10--10--10-----10--10---10-10-|
 |-8--8--X-X-8---8---8---8------8---8----8--8--|
 |---------------------------------------------|


F5                         Fm(VIII) Remate de acordes.
 Mira el reloj se derritio.


    Fm(VIII)              C#(IX)
 |-8--8--X-X-8--8--X-X-|-9--9--X-X-9--9--X-X-|
 |-9--9--X-X-9--9--X-X-|-9--9--X-X-9--9--X-X-|
 |-10-10-X-X-10-10-X-X-|-10-10-X-X-10-10-X-X-|
 |-10-10-X-X-10-10-X-X-|-11-11-X-X-10-10-X-X-|
 |-8--8--X-X-8--8--X-X-|-11-11-X-X-11-11-X-X-|
 |---------------------|-9--9--X-X-9--9--X-X-|
             Re-bo-bi-nan-do   ha-cia  a-de...  


   Fm(VIII)    Fsus2 Fm  F7sus4 Fm
 |-8--8--X-X-8---8---8---8------8---8----8--8--|
 |-9--9--X-X-9---8---9---11-----9---9----9--9--|
 |-10-10-X-X-10--10--10--8------10--10---10-10-|
 |-10-10-X-X-10--10--10--10-----10--10---10-10-|
 |-8--8--X-X-8---8---8---8------8---8----8--8--|
 |---------------------------------------------|
...lante te alcanzó.


Fm(VIII)  C#(IX)        Fm(VIII)       Remate de acordes.
   Rebobinando hacia adelante te alcanzo.


     G#(VIII)              Cm(VIII)
||  -8--8--X-X-8--8--X-X-|-8--8--X-X-8--8--X-X-  ||
||  -9--9--X-X-9--9--X-X-|-8--8--X-X-8--8--X-X-  ||
||O -8--8--X-X-8--8--X-X-|-8--8--X-X-8--8--X-X- O||
||O -10-10-X-X-10-10-X-X-|-10-10-X-X-10-10-X-X- O||
||  -11-11-X-X-11-11-X-X-|-10-10-X-X-10-10-X-X-  ||
||  ---------------------|-8--8--X-X-8--8--X-X-  ||X2
           E--cos  de  an--tes    re---bo...
  ...tan--do  en  la  quie-tud.           ¡Oh,


   D#(III)
 |-3-3-X-X-3-3-X-X-|-3-3-X-X-3-3-X-X-|
 |-4-4-X-X-4-4-X-X-|-4-4-X-X-4-4-X-X-|
 |-3-3-X-X-3-3-X-X-|-3-3-X-X-3-3-X-X-|
 |-5-5-X-X-5-5-X-X-|-5-5-X-X-5-5-X-X-|
 |-6-6-X-X-6-6-X-X-|-6-6-X-X-6-6-X-X-|
 |-----------------|-----------------|
   no! 


G#(VIII) Cm(VIII)  G#(VIII)        Cm(VIII)  D#(III)
 Ecos de antes rebotando en la quietud. ¡Oh, no!


   VERSO 4.

    Fm(VIII)              C#(IX)
||  -8--8--X-X-8--8--X-X-|-9--9--X-X-9--9--X-X-|
||  -9--9--X-X-9--9--X-X-|-9--9--X-X-9--9--X-X-|
||O -10-10-X-X-10-10-X-X-|-10-10-X-X-10-10-X-X-|
||O -10-10-X-X-10-10-X-X-|-11-11-X-X-10-10-X-X-|
||  -8--8--X-X-8--8--X-X-|-11-11-X-X-11-11-X-X-|
||  ---------------------|-9--9--X-X-9--9--X-X-|
||             Todo es men-tira   ya     ve...
||             La    poe---sia      es
||
||  ---------------------|---------------------|
||  ---------------------|---------------------|
||O -12b(13)~~~~~~~~~~~~-|-(13)r12-------------|
||O -sólo la 1a vez------|---------------------|
||  ---------------------|---------------------|
||  ---------------------|---------------------|


   Fm(VIII)    Fsus2 Fm  F7sus4 Fm
 |-8--8--X-X-8---8---8---8------8---8----8--8--  ||
 |-9--9--X-X-9---8---9---11-----9---9----9--9--  ||
 |-10-10-X-X-10--10--10--8------10--10---10-10- O||
 |-10-10-X-X-10--10--10--10-----10--10---10-10- O||
 |-8--8--X-X-8---8---8---8------8---8----8--8--  ||
 |---------------------------------------------  ||X2
...ras.
   la unica verdad.


Fm(VIII)      C#(IX)   Fm(VIII)   Remate de acordes.
  Todo es mentira ya veras
Fm(VIII) C#(IX)   Fm(VIII)   Remate de acordes.
  La poesia es la unica verdad


     G#(VIII)              Cm(VIII)
||  -8--8--X-X-8--8--X-X-|-8--8--X-X-8--8--X-X-  ||
||  -9--9--X-X-9--9--X-X-|-8--8--X-X-8--8--X-X-  ||
||O -8--8--X-X-8--8--X-X-|-8--8--X-X-8--8--X-X- O||
||O -10-10-X-X-10-10-X-X-|-10-10-X-X-10-10-X-X- O||
||  -11-11-X-X-11-11-X-X-|-10-10-X-X-10-10-X-X-  ||
||  ---------------------|-8--8--X-X-8--8--X-X-  ||
||             Sa-car  be--lleza     de---es-te  ||
||   ca-----os   es   vir--tud,           ¡Oh,   ||
||                                               ||
||  ---------------------|---------------------  ||
||  ---------------------|---------------------  ||
||O -15b(16)~~~~~~~~~~~~-|-(16)r15------------- O||
||O -sólo la 1a vez------|--------------------- O||
||  ---------------------|---------------------  ||
||  ---------------------|---------------------  ||X2
 
   D#(III)
 |-3-3-X-X-3-3-X-X-|-3-3-X-X-3-3-X-X-|
 |-4-4-X-X-4-4-X-X-|-4-4-X-X-4-4-X-X-|
 |-3-3-X-X-3-3-X-X-|-3-3-X-X-3-3-X-X-|
 |-5-5-X-X-5-5-X-X-|-5-5-X-X-5-5-X-X-|
 |-6-6-X-X-6-6-X-X-|-6-6-X-X-6-6-X-X-|
 |-----------------|-----------------|
   no! 


G#(VIII) Cm(VIII)      G#(VIII)   Cm(VIII)  D#(III)
 Sacar belleza de este caos es virtud, ¡Oh, no!


   CORO.
   
||  -----------------10-10--  ||   ||  ------------------11-11--  ||
||  -------9-9-11-11--------  ||   ||  --------9-9-11-11--------  ||
||O -10-10------------------ O||   ||O --10-10------------------ O||
||O ------------------------ O||   ||O ------------------------- O||
||  ------------------------  ||   ||  -------------------------  ||
||  ------------------------  ||   ||  -------------------------  ||
||                            ||   ||                             ||
||   A#5(VI)                  ||   ||  C#5(IV)                    ||
||  ------------------------  ||   ||  -------------------------  ||
||  ------------------------  ||   ||  -------------------------  ||
||O ------------------------ O||   ||O ------------------------- O||
||O ------------------------ O||   ||O -6--6--6--6--6--6--6--6-- O||
||  -8--8--8--8--8--8--8--8-  ||   ||  -4--4--4--4--4--4--4--4--  ||
||  -6--6--6--6--6--6--6--6-  ||x2 ||  -------------------------  ||X2

 A#5(VI)           C#5(IV)
 Tanto pediste retener ese momento de pla...


||  ---------8-8-11-11-  ||   ||  ---------------11-11-  ||
||  -----9-9-----------  ||   ||  -----8-8-11-11-------  ||
||O -8-8--------------- O||   ||O -8-8----------------- O||
||O ------------------- O||   ||O --------------------- O||
||  -------------------  ||   ||  ---------------------  ||
||  -------------------  ||   ||  ---------------------  ||
||                       ||   ||                         ||
||   G#5(IV)             ||   ||   D#5(VI)               ||
||  -------------------  ||   ||  ---------------------  ||
||  -------------------  ||   ||  ---------------------  ||
||O ------------------- O||   ||O --------------------- O||
||O ------------------- O||   ||O -8-8--8-8--8-8--8-8-- O||
||  -6-6-6-6--6-6-6-6--  ||   ||  -6-6--6-6--6-6--6-6--  ||
||  -4-4-4-4--4-4-4-4--  ||X2 ||  ---------------------  ||X2

G#5(IV)  D#5(VI)
...cer.  Antes de que sea tarde.


||  -----------------10-10--  ||   ||  ------------------11-11--  ||
||  -------9-9-11-11--------  ||   ||  --------9-9-11-11--------  ||
||O -10-10------------------ O||   ||O --10-10------------------ O||
||O ------------------------ O||   ||O ------------------------- O||
||  ------------------------  ||   ||  -------------------------  ||
||  ------------------------  ||   ||  -------------------------  ||
||                            ||   ||                             ||
||   A#5(VI)                  ||   ||  C#5(IV)                    ||
||  ------------------------  ||   ||  -------------------------  ||
||  ------------------------  ||   ||  -------------------------  ||
||O ------------------------ O||   ||O ------------------------- O||
||O ------------------------ O||   ||O -6--6--6--6--6--6--6--6-- O||
||  -8--8--8--8--8--8--8--8-  ||   ||  -4--4--4--4--4--4--4--4--  ||
||  -6--6--6--6--6--6--6--6-  ||x2 ||  -------------------------  ||X2

 A#5(VI)              C#5(IV)
 Vuelve la misma sensacion, esta cancion ya escri...


||  ---------8-8-11-11-  ||   ||  ---------------11-11-------  ||
||  -----9-9-----------  ||   ||  -----8-8-11-11-------------  ||
||O -8-8--------------- O||   ||O -8-8------------------11\\- O||
||O ------------------- O||   ||O ----------------------11\\- O||
||  -------------------  ||   ||  ---------------------------  ||
||  -------------------  ||   ||  ---------------------------  ||
||                       ||   ||                               ||
||   G#5(IV)             ||   ||   D#5(VI)                     ||
||  -------------------  ||   ||  ---------------------------  ||
||  -------------------  ||   ||  ---------------------------  ||
||O ------------------- O||   ||O --------------------------- O||
||O ------------------- O||   ||O -8--8--8--8--8--8--8--8---- O||
||  -6-6-6-6--6-6-6-6--  ||   ||  -6--6--6--6--6--6--6--6----  ||
||  -4-4-4-4--4-4-4-4--  ||X2 ||  ---------------------------  ||X2

G#5(IV)   D#5(VI)                 
...ibio.  Hasta el mínimo detalle que cambio.


   PUENTE.

     G#5(IV)                  B5(VII)
||  ------------------------|---------------------------------|
||  ------------------------|---------------------------------|
||O ------------------------|---------------------------------|
||O -6--6--6--6--6--6--6--6-|-9---9---9---9---9---9---9---9---|
||  -6--6--6--6--6--6--6--6-|-9---9---9---9---9---9---9---9---|
||  -4--4--4--4--4--4--4--4-|-7---7---7---7---7---7---7---7---|
||                                                            |
||                                                            |
||  ------------------------|---------------------------------|
||  -7h9--9-9-9--7h9--9-9-9-|-9p7-7------7------7------7------|
||O -8----8-8-8--8----8-8-8-|-8---9b(11)-9b(11)-9b(11)-9b(11)-|
||O ------------------------|---------------------------------|
||  ------------------------|---------------------------------|
||  ------------------------|---------------------------------|


     C#5(IX)                    F#5(II)
|--------------------------|---------------------------------  ||
|--------------------------|---------------------------------  ||
|--------------------------|--------------------------------- O||
|-11-11-11-11-11-11-11-11\\|\4---4---4---4---4---4---4---4--- O||
|-11-11-11-11-11-11-11-11\\|\4---4---4---4---4---4---4---4---  ||
|-9--9--9--9--9--9--9--9\\\|\2---2---2---2---2---2---2---2---  ||
|                                                              ||
|                                                              ||
|--------------------------|---------------------------------  ||
|-7h9--9-9-9--7h9--9-9-9---|-9p7-7------7------7------7------  ||
|-8----8-8-8--8----8-8-8---|-8---9b(11)-9b(11)-9b(11)-9b(11)- O||
|--------------------------|--------------------------------- O||
|--------------------------|---------------------------------  ||
|--------------------------|---------------------------------  ||X2


   FINAL.


     Fm(VIII)                      C#(IX)
||  -----------------------9--9--|-----------------11-11--  ||
||  ---------9--9--11--11--------|-------9-9-11-11--------  ||
||O -10--10----------------------|-10-10------------------ O||
||O -----------------------------|------------------------ O||
||  -----------------------------|------------------------  ||
||  -----------------------------|------------------------  ||
||                                                          ||
||                                                          ||
||  -----------------------------|------------------------  ||
||  -------------8-------8-------|-8--8--8-8-8--8--8--8---  ||
||O -10-10-10-10-10b(12)-10b(12)-|------------------------ O||
||O -----------------------------|------------------------ O||
||  -----------------------------|------------------------  ||
||  -----------------------------|------------------------  ||X8

 Fm(VIII)    C#(IX)
 Cerca del final     
 Fm(VIII)      C#(IX)
 Solo falta un paso mas
 Fm(VIII)       C#(IX)
 Siento un deja vu 

 Sin acordes, sólo riff
 ¡Deja vuuuuuuuuuuuuuuuuuuuuuuuuuuuuuuuuuuuuuuu!

                                                      (delay)
 |-----------------------9--9--|-----------------11-11\\\---||
 |---------9--9--11--11--------|-------9-9-11-11------------||
 |-10--10----------------------|-10-10----------------------||
 |-----------------------------|----------------------------||
 |-----------------------------|----------------------------||
 |-----------------------------|----------------------------||
 |                                                          ||
 |                                                          ||
 |-----------------------------|----------------------------||
 |-------------8-------8-------|-8--8--8-8-8--8--8--8-------||
 |-10-10-10-10-10b(12)-10b(12)-|----------------------------||
 |-----------------------------|----------------------------||
 |-----------------------------|----------------------------||
 |-----------------------------|----------------------------||





Comments


Popular Gustavo Cerati tabs & chords
Adios Chords
Amor Amarillo Chords
Colores Santos Chords
Deja Vu Chords
Jugo De Luna Chords
Lago En El Cielo Chords
Colores Santos Ukulele
Deja Vu Ukulele
He Visto A Lucy Ukulele
Rombos Ukulele


Song lyrics



↑ Back to top | Tablatures and chords are parodies/interpretations of the original songs. You may use it for private study, scholarship, research or language learning purposes only
© 2014 AZChords.com Contact us | Privacy policy | DMCA | Add/correct tabs | Request tabs | Top 50 tabs