>
 >
Cosas Imposibles

Cosas Imposibles Bass Tabs

Gustavo Cerati - Cosas Imposibles chords, tabs, tablatures, lyrics

Guitar lessons | Add/correct | Request | Top 50 tabs Artists:  A B C D E F G H I J K L M N O P Q R S T U V W X Y Z 0-9

Cosas Imposibles Bass Tabs – Gustavo Cerati

CD, Sheet music, Poster

Do you like Cosas Imposibles? Share with your friends now
Bass Tabs
Canción: Cosas Imposibles
Artista: Gustavo Cerati

Primero que nada la afinación es D-A-D-G
Comienza la bateria  y el "chucuchucu", el bajo entra en 0:34

G-|---------|----------|---------|
D-|---------|----------|---------|      repetir en los acordes, cuando hace el riff no toca  
A-|---------|----------|---------|
D-|---0h2s0-|---0h2s0--|---0h2s0-|


en el tiempo 1:22, cuando canta "aha, aha, aha" segun yo es

G-|---------|-----------|-----------|---------|---------|------------|
D-|---------|-----------|-----------|---------|---------|------------|    una vez
A-|---------|--2h4p2h4--|-----------|---------|---------|--2h4p2h4---|
D-|---0h2---|-----------|-----0h2---|---------|---0h2---|------------|

luego sigue igual que el primer verso, 

G-|---------|----------|---------|
D-|---------|----------|---------|       cuando hace el riff no toca  
A-|---------|----------|---------|
D-|---0h2s0-|---0h2s0--|---0h2s0-|

y vuelve a aplicar la misma en "aha, aha"
en el tiempo 1:45 ahora solo al principio

G-|---------|----------|---------|------|-------|-----|
D-|---------|----------|---------|------|-------|-----|   x2
A-|---------|-2h4p2h4--|---------|------|-------|-----|
D-|---0h2---|----------|----0h2--|------|--0h2--|-----|

para entrar al coro es 

G-|--------|
D-|--------|
A-|---4~~--|
D-|--------|

en el coro

G-|----------|--------|-----------|------------|
D-|----------|--------|-----------|------------|   x3
A-|-5---5-5--|-5--5-5-|--4---4-4--|------------|
D-|----7-----|---7----|-----6-----|--6~~---4~~-|

 cuando dice "quiero hacer cosas imposibles" solo es en D asi

G-|---------|----------|----------|---------|
D-|---------|----------|----------|---------|
A-|-5--5-5--|-5---5-5--|--5--5--5-|--5-5-5--|
D-|---7-----|---7------|----7-----|---------|

y el puente es

G-|-----------|-----------|-----------|----------|-----------|------------|---------------|
D-|-----------|-----------|-----------|----------|-----------|------------|---------------|
A-|-----------|--2h4p2h4--|-----------|-2h4p2h4--|-----------|--2h4p2h4---|---------------|
D-|---0h2-2-2-|-----------|---0h2-2-2-|----------|---0h2-2-2-|------------|--0h2/14-14-14-|

G-|-----------|-----------|-------------|----------|-----------|------------|------------|
D-|-----------|-----------|-------------|----------|-----------|------------|------------|
A-|-----------|--2h4p2h4--|-------------|-2h4p2h4--|-----------|--2h4p2h4---|------------|
D-|---0h2-2-2-|-----------|-----0h2-2-2-|----------|---0h2-2-2-|------------|-0h2/9-9-9--|

y regresa al verso

G-|---------|----------|---------|
D-|---------|----------|---------|      recuerden que en el riff no toca
A-|---------|----------|---------|
D-|---0h2s0-|---0h2s0--|---0h2s0-|

despues del silencio vuelve a hacer lo del "aha, aha, aha" 

                                                         
G-|---------|-----------|-----------|---------|---------|------------|
D-|---------|-----------|-----------|---------|---------|------------|    x2
A-|---------|--2h4p2h4--|-----------|---------|---------|--2h4p2h4---|
D-|---0h2---|-----------|-----0h2---|---------|---0h2---|------------|

y otra vez el coro

G-|--------|
D-|--------|  "Siempre es hoy"
A-|---4~~--|
D-|--------|

en el coro

G-|----------|--------|-----------|------------|
D-|----------|--------|-----------|------------|   x3
A-|-5---5-5--|-5--5-5-|--4---4-4--|------------|
D-|----7-----|---7----|-----6-----|--6~~---4~~-|

hasta que vuelve a cantar en el tiempo 3:46


G-|----------|--------|---------|---------|
D-|----------|--------|---------|---------|  
A-|-5---5-5--|-5--5-5-|----4~~--|---------|
D-|----7-----|---7----|---------|--6~~----|

otra vez el coro 


G-|----------|--------|-----------|------------|
D-|----------|--------|-----------|------------|   x3
A-|-5---5-5--|-5--5-5-|--4---4-4--|------------|
D-|----7-----|---7----|-----6-----|--6~~---4~~-|

 luego, para introducir la salida
G-|---------|----------|----------|------------|
D-|---------|----------|----------|------------|
A-|-5--5-5--|-5---5-5--|--5--5--5-|--5-5-5-5-5-|
D-|---7-----|---7------|----7-----|------------|

luego para acabar

G-|---------|-----------|-----------|----------|---------|------------|
D-|---------|-----------|-----------|----------|---------|------------|    x6
A-|---------|--2h4p2h4--|-----------|-2h4p2h4--|---------|--2h4p2h4---|
D-|---0h2---|-----------|-----0h2---|----------|---0h2---|------------|

ya al final

G-|----------|
D-|----------|  
A-|----------|
D-|--0h2-2-2-|

Espero que les sirva al menos de referencia, si ven errores y pueden hacerle 





Comments


Popular Gustavo Cerati tabs & chords
Colores Santos 1 Chords
Engaca Chords
Lisa Chords
Rio Babel Chords
Sudestada Chords
A Merced Ukulele
Avenida Alcorta Ukulele
Bajan Ukulele
La Excepcion Ukulele
Rio Babel Ukulele


Song lyrics



↑ Back to top | Tablatures and chords are parodies/interpretations of the original songs. You may use it for private study, scholarship, research or language learning purposes only
© 2014 AZChords.com Contact us | Privacy policy | DMCA | Add/correct tabs | Request tabs | Top 50 tabs