» » »

Gustavo Cerati, Avenida Alcorta Tabs (ver.1)

Artists:  A B C D E F G H I J K L M N O P Q R S T U V W X Y Z # 

Avenida Alcorta Tabs (ver.1)

Gustavo Cerati Tabs
 Rating:
4.2/5 (5 votes)
Avenida Alcorta lessons Tabs too difficult? Try these video lessons and learn fast
1
                NOTE: Capo on 5th fret.
All chords and fingering is shown relative to capo.
(i.e., put capo on 5th fret, and then you actually must finger 
5 frets further down on your fretboard compared to what is shown below)
 

PATTERN 1 (Positions shown, listen to track for strum pattern)

E||--0--0----------------0--|--0--------------------| x2
B||--0--1----------------1--|--0---3--2-------------|
G||--0--0--0-2-0-2-2br~--0--|--0--(0)-2---5~~--3~~--|
D||--2--2--0-2-0-2-2br~--2--|--2---2--2---4----2----|
A||--2--3--0-0-0-0-0-----3--|--2---2--0---5----3----|
E||--0--3----------------3--|--0--------------------|


PATTERN 2 (Positions shown, listen to track for strum pattern)

  Avenida...       cicatriz...    
  Hoy Volvi...     de hablar...
  Providencia...   ser azar...
  Donde estemos... sera nuestro...
--0----0-----------8-------|--10----9----8----6----| x4 or x2
--0----1----(0)----5-------|---8----8----7----5----|
--0----0-----2-----5-------|---7----9----7----5----|
--2----2-----2-----5-------|---9----7----7----5----|
--2----3-----0-------------|---7----7--------------|
--0----3-------------------|-----------------------|


PATTERN 3 (Positions shown, listen to track for strum pattern)

  No se...
|--0----(0)----(0)---| x2 or x4
|--0-----0------0----|
|--2-----0------0----|
|--2-----3------4----|
|--0-----2------5----|
|--------------------|


PATTERN 4 (Positions shown, listen to track for strum pattern)

Encerrado...
|--3----3----3---| x2 or x10
|--3----3----3---|
|--0----0----0---|
|--0----x----2---|
|--2----1----3---|
|--3----x----x---|
            
Submit corrections

comments powered by Disqus
↑ Back to top | Gustavo Cerati Tabs for Avenida Alcorta. Lyrics for acoustic guitar and electric guitar. 1 Tablatures and chords are parodies/interpretations of the original songs. You may use it for private study, scholarship, research or language learning purposes only