» » »

Gustavo Cerati, Amor Amarillo Tabs (ver.1)

Artists:  A B C D E F G H I J K L M N O P Q R S T U V W X Y Z # 

Amor Amarillo Tabs (ver.1)

Gustavo Cerati Tabs
 Rating:
4/5 (4 votes)
Amor Amarillo lessons Tabs too difficult? Try these video lessons and learn fast
                STANDARD TUNING.
***CAPO ON SECOND FRET***
ALL NOTES RELATIVE TO CAPO.
USE LIGHT DISTORTION/GAIN ON THE EDGE OF BREAKUP.
TELECASTER TYPE GUITAR ON BRIDGE PICKUP.

[INTRO]
e-------------------         e--------3-2-~-|
b--------0----0-----  X 3    b------3-3-3-~-|
g------0--------0---         g----2---------|
d----2------0-----0-         d--0-----------|
a--0------2---------         a--------------|
E-------------------         E--------------|

Adentro tuyo...               ...es unico...
e-------------------         e--------3-2-~-|
b--------0----0-----  X 6    b------3-3-3-~-|
g------0--------0---         g----2---------|
d----2------0-----0-         d--0-----------|
a--0------2---------         a--------------|
E-------------------         E--------------|

e----------------------------------------------------------|
b-----7-----6----5s4s5s4s5~--------7-----6--/--11--11~--x\-|
g-----7-----6----5s4s5s4s5~--------7-----6--/--12--12~--x\-|
d-----6-----5----4s3s4s3s4~--------6-----5--/--11--11~--x\-|
a-----7--6--6----5s4s5s4s5~--------7--6--6--/--12--12~--x\-|
E--0----------------------------0--------------------------|

[VERSE]

      Cuerpos de luz...      corriendo en pleno cielo
e---------------------------------------------------|
b-----0-------------------------0-1-0---------------|
g-------2-0---------------------------2-0---0---0---|
d-2---------2-----4-2-0-----2-----------------4---0-|
a---0---------2---------------0-----------2---------|
E---------------0-----------------------------------|

       cristales de amor amarillo...
e-------------------------------2-0------------------|
b-----0-----------------------------3-0------------0-|
g-------2-0-----------0--------------------------0---|
d-2---------2-4---4-2-0-----2----------------0-2-----|
a---0---------2-2-------------0---------2~-2---------|
E----------------------------------------------------|

  no dejaré que seas fría, yo podría calentarte...
e----------------------------------------------------|
b-----0-------------------------0-1-0----------------|
g-------2-0------------0--------------2-0--------0---|
d-2---------2-4----4-2-0-----2------------4--4-2-0---|
a---0---------2-2--------------0----------2----------|
E----------------------------------------------------|

       para abandonarme y renacer...
e----------------------------------------------------------------|
b-----0---------------------------0--------0---------0---------0-|
g-------2-0---------------------0--------0---------0---------2---|
d-2---------2-4----4-2-0------2--------2---------0---------1-----|
a---0---------2-2-----------3--------4-------------------2-------|
E----------------------------------------------3-----------------|


[OUTRO]
Has many variations using this progression...
e----------------------------------------------------------------|
b----------------------------------------------------------------|
g--13---11---13---11----(listen very carefully for variants)-----|
d--13---11---11---11---------------------------------------------|
a--15---13-- 11---13---------------------------------------------|
E----------------------------------------------------------------|
            
Submit corrections

comments powered by Disqus
↑ Back to top | Gustavo Cerati Tabs for Amor Amarillo. Lyrics for acoustic guitar and electric guitar. Tablatures and chords are parodies/interpretations of the original songs. You may use it for private study, scholarship, research or language learning purposes only