» » »

Adios Bass tabs (ver.1)

Artists:  A B C D E F G H I J K L M N O P Q R S T U V W X Y Z # 

Adios Bass tabs (ver.1)

Gustavo Cerati
Rating:
1/5 (1 vote)

Hard to play? Try these video lessons and learn fast.
                +++++++++++++++++++++++++
| Gustavo Cerati- Adios |
+++++++++++++++++++++++++


"Del mismo dolor vendrá un nuevo amanecer..."

Tuning: EADG


Intro
1.
G|---------------------0~--------2~--0~------------------------0~--------2~--0~--|
D|-4-2~----------0~------------------------4-2~----------0~----------------------|
A|---------0~--------------------------------------0~----------------------------|
E|-------------------------------------------------------------------------------|

Verse
"Suspiraban lo mismo los dos..."
2.
G|---------2~--------------------------------------2~----------------------------|
D|-4-2~----------0~------------------------4-2~----------0~----------------------|
A|-------------------------------0~--------------------------------------0~------|
E|---------------------3~------------3~------------------------3~------------3~--|

"No te confundas no sirve el rencor..."
3.
G|-------------------------------------------------------------------------------|
D|-4-2~----------0~------------------------4-2~----------0~----------------------|
A|---------0~--------------------0~----------------0~--------------------0~------|
E|---------------------3~------------3~------------------------3~------------3~--|

Chorus
"Pones canciones tristes..."
4.
G|-------------------------0~-0~-0~-0~-------------|
D|-------------4~-4~-4~-4~-------------0~-0~-0~-0~-|
A|-0-2~--------------------------------------------|
E|-------------------------------------------------|

"Tu esencia es mas visible..."
5.
G|-------------------------------------------------|
D|-------------------------------------------------|
A|-0~-0~-0~-0~-2~-2~-2~-2~-------------------------|
E|-------------------------3~-3~-3~-3~-3~-3~-3~-3~-|

Outro
6.
G|---------------------0~--------2~--0~----|
D|-4-2~----------0~------------------------|
A|---------0~------------------------------|
E|-----------------------------------------|

Verse
"Talvez colmaban la necesidad..."
7.
G|-------------------------------------------------------------------------------|
D|-4-2~----------0~------------------------4-2~----------0~----------------------|
A|---------0~--------------------0~----------------0~--------------------0~------|
E|---------------------3~------------3~------------------------3~---x--------3~--|

"No conocían la profundidad..."
8.
G|-------------------------------------------------------------------------------|
D|-4-2~----------0~------------------------4-2~----------0~----------------------|
A|---------0~--------------------0~----------------0~--------------------0~------|
E|---------------------3~------------3~------------------------3~------------3~--|

Chorus
"Quedabas esperando..."
9.
G|-------------------------0~-0~-0~-0~-------------|
D|-------------4~-4~-4~-4~-------------0~-0~-0~-0~-|
A|-0-2~--------------------------------------------|
E|-------------------------------------------------|

"Flotando entre rechazos..."
10.
G|-------------------------------------------------|
D|-------------------------------------------------|
A|-0~-0~-0~-0~-2~-2~-2~-2~-------------------------|
E|-------------------------3~-3~-3~-3~-3~-3~-3~-3~-|

Outro
11.
G|---------------------0~--------2~--0~------------------------0~--------2~--0~--|
D|-4-2~----------0~------------------------4-2~----------0~----------------------|
A|---------0~--------------------------------------0~----------------------------|
E|-------------------------------------------------------------------------------|

12.
G|---------------------0~--------2~--0~----|
D|-4-2~----------0~------------------------|
A|---------0~------------------------------|
E|-----------------------------------------|

Bridge
"Separarse de la especie..."
13.
G|---------------------------------------------------------------------------------------|
D|---------------------------------------------------------------------------------------|
A|-0-2~--------1~--------0~--------------------------------------0~-0~-0~-0~-0~-0~-0~-0~-|
E|---------------------------------4~--------3~--------2~--------------------------------|

"No es soberbia, es amor..."
14.
G|-------------------------------------------------------------|
D|---------------------------------------------------5~--------|
A|-----------5~--------0~--------------------------------------|
E|-3~----------------------------0~--------3~------------------|

15.
G|------------------------------------------------------------------------|
D|------------------------4-2~--------2-0-0-------------------------------|
A|--------------------------------0-2-------2-0-------------0~------------|
E|-------33-33333x------------------------------0-3~------------3~--------|

Outro
16.
G|-------------------------------------------------------------------------------------------|
D|-------------------------------------------------------------------------------------------|
A|-0~-----------0~------------0~------------0~------------0~------------0~------------0~-----|
E|-----3~-----------3~------------3~------------3~------------3~------------3~------------3~-|

17.
G|----------------------------------------------------------|
D|----------------------------------------------------------|
A|-0~-----------0~------------0~----------------------------|
E|-----3~-----------3~------------3~------------------------|


Lyrics:


Suspiraban lo mismo los dos
Y hoy son parte de una lluvia lejos
No te preocupes, no sirve el rencor
Son espasmos después del adiós

Pones canciones tristes
Para sentirte mejor
Tu esencia es mas visible
Del mismo dolor vendrá un nuevo amanecer

Talvez colmaban la necesidad
Pero hay vacíos que no pueden llenar
No conocían la profundidad
Hasta que un día no dió para mas

Quedabas esperando 
Ecos que no volveran
Flotando entre rechazos
Del mismo dolor vendrá un nuevo amanecer

Separarse de la especie
Por algo superior
No es soberbia, es amor
Poder decir adiós es crecer



+++++++++++++++++++++++++++++++++
| RaiLeff                       |
+++++++++++++++++++++++++++++++++
            
Hard to play? Try these video lessons and learn fast. | Correct




comments powered by Disqus
↑ Back to top | Tablatures and chords are parodies/interpretations of the original songs. You may use it for private study, scholarship, research or language learning purposes only