» » »

Guns N Roses, You're Crazy Bass tabs (ver.1)

Artists:  A B C D E F G H I J K L M N O P Q R S T U V W X Y Z # 

You're Crazy Bass tabs (ver.1)

Guns N Roses Tabs
 Rating:
4/5 (4 votes)
You're Crazy lessons Tabs too difficult? Try these video lessons and learn fast
                Tune down

F#||------------------|--------------------||--------------------------|
C#||------------------|--------------------||*-------------------------|
G#||------------------|--------------------||*-------------------------|
D#||------------------|--3--------4--------||---3--5--5--3--5----3--5--|


                                                                       
--------------------|-------------------------|----------------------||
--------------------|-------------------------|---------------------*||
-------5------------|-------------------------|---------------------*||
----5---------------|--3--5--5--3--5----3--5--|----5--3----0---------||


                                                                         
-------------------------|--------------------|-------------------------|
-------------------------|--------------------|-------------------------|
-------------------------|-------5------------|-------------------------|
--3--5--5--3--5----3--5--|----5---------------|--3--5--5--3--5----3--5--|


                                                                     
---------------------|-------------------------|--------------------|
---------------------|-------------------------|--------------------|
---------------------|-------------------------|-------5------------|
----5--3----0--------|--3--5--5--3--5----3--5--|----5---------------|


                                                                            
-------------------------|---------------------||--------------------------|
-------------------------|---------------------||*-------------------------|
-------------------------|---------------------||*-------------------------|
--3--5--5--3--5----3--5--|----5--3----0--------||---3--5--5--3--5----3--5--|


                                                                     
--------------------|-------------------------|---------------------|
--------------------|-------------------------|---------------------|
-------5------------|-------------------------|---------------------|
----5---------------|--3--5--5--3--5----3--5--|----5--3----0--------|


                                                                         
-------------------------|--------------------|-------------------------|
-------------------------|--------------------|-------------------------|
-------------------------|-------5------------|-------------------------|
--3--5--5--3--5----3--5--|----5---------------|--3--5--5--3--5----3--5--|


                                                                      
---------------------|-----------------------|-----------------------|
---------------------|-----------------------|-----------------------|
---------------------|--5--5--5--5--5--------|--5--5--5--5--5--------|
----5--3----0--------|-----------------------|-----------------------|


                                                                           
-----------------------|------------------------|-------------------------|
-----------------------|------------------------|-------------------------|
--5--5--5--5--5--------|--5--5--5--5--5--3------|-------------------------|
-----------------------|------------------------|--3--5--5--3--5----3--5--|


                                                                     
--------------------|-------------------------|---------------------|
--------------------|-------------------------|---------------------|
-------5------------|-------------------------|---------------------|
----5---------------|--3--5--5--3--5----3--5--|----5--3----0--------|


                                                                        
-----------------------|-----------------------|-----------------------|
-----------------------|-----------------------|-----------------------|
--5--5--5--5--5--------|--5--5--5--5--5--------|--5--5--5--5--5--------|
-----------------------|-----------------------|-----------------------|


                                                      
--------------------------|--------------------------|
--------------------------|--------------------------|
--5--5--5--5--5--5--5--5--|--7--7--7--7--7--7--7--7--|
--------------------------|--------------------------|


                                                                           
--------------------------|--------------------------|--------------------|
--------------------------|--------------------------|--------------------|
--7--7--7--7--7--7--7--7--|--5--5--5--5--5--5--5--5--|--3-----------------|
--------------------------|--------------------------|-----------3--------|


                                                                         
-------------------------|--------------------|-------------------------|
-------------------------|--------------------|-------------------------|
-------------------------|-------5------------|-------------------------|
--3--5--5--3--5----3--5--|----5---------------|--3--5--5--3--5----3--5--|


                                                                     
---------------------|-------------------------|--------------------|
---------------------|-------------------------|--------------------|
---------------------|-------------------------|-------5------------|
----5--3----0--------|--3--5--5--3--5----3--5--|----5---------------|


                                                                          
-------------------------|----------------------||-----------------------|
-------------------------|---------------------*||-------5b--------------|
-------------------------|---------------------*||--7---------7--6----5--|
--3--5--5--3--5----3--5--|----5--3----0---------||-----------------------|


                                                                          
-------------------------|----------------------|------------------------|
-------------------------|----------------------|------------------------|
----------------------3--|-------------7--6--5--|---------------------3--|
----3--3--x-4---5--5-----|------5---------------|----3--4--5----5--5-----|


                                                                        
----------------------|-------------------------|----------------------|
----------------------|----4--5--6--------------|----------------------|
-------------7--6--5--|----------------------3--|-------------7--6--5--|
------5---------------|-------------5--5--3-----|------5---------------|


                                                                
-----------------------|-------------------|-------------------|
-----------------------|-------------------|-------------------|
----3----3----------3--|-------------7--6--|--5----------------|
--------------5--3-----|------5------------|-------------------|


                                                               
-------------------|--------------------|---------------------|
--7/---------------|--12----------------|---------------------|
-------------------|--------------------|---------------------|
-------------------|--------------------|--------0--3----2----|


                                                                              
|--------------------------|------------------------|------------------------|
|*-------------------------|------------------------|------------------------|
|*----------------------7--|---------------------7--|---------------------7--|
|---0----0--0--0--0--0-----|------0--0--0--0--0-----|------0--0--0--0--0-----|


                                                                         
---------------------|----------------------2--|---------------------2--|
---------------------|-------------------------|------------------------|
-----------3----2----|--0----0--0--0--0--0-----|------0--0--0--0--0-----|
------5--------------|-------------------------|------------------------|


                                                                       
---------------------2--|----------------------||---------------------|
------------------------|---------------------*||---------------------|
------0--0--0--0--0-----|---------------------*||---------------------|
------------------------|------0----3----2-----||--5--------3------3--|


                                                          
----------------------|----------------------------------|
----------------------|----------------------------------|
----------------------|----------------------------------|
--2------2--1------1--|--0-0-0-0-0-0-0-0-0-0-0-0-0-0-0-0-|


                                                             
----------------------------------|-------------------------|
----------------------------------|-------------------------|
--7-7-7-------7-7-7-------7-7-----|--0--2--2--0--2----0--2--|
--------0-0-0-------0-0-0-----0-0-|-------------------------|


                                                                     
--------------------|-------------------------|---------------------|
--------------------|-------------------------|---------------------|
----0---------------|--0--2--2--0--2----0--2--|----2--0-------------|
-------0------------|-------------------------|------------2--------|


                                                                         
-------------------------|--------------------|-------------------------|
-------------------------|--------------------|-------------------------|
--0--2--2--0--2----0--2--|----0---------------|--0--2--2--0--2----0--2--|
-------------------------|-------0------------|-------------------------|


                                                                     
---------------------|-------------------------|--------------------|
---------------------|-------------------------|--------------------|
----2--0-------------|--0--2--2--0--2----0--2--|----0---------------|
------------2--------|-------------------------|-------0------------|


                                                                          
-------------------------|---------------------|-------------------------|
-------------------------|---------------------|-------------------------|
--0--2--2--0--2----0--2--|----2--0-------------|--0--2--2--0--2----0--2--|
-------------------------|------------2--------|-------------------------|


                                                                     
--------------------|-------------------------|---------------------|
--------------------|-------------------------|---------------------|
----0---------------|--0--2--2--0--2----0--2--|----2--0-------------|
-------0------------|-------------------------|------------2--------|


                                                                         
-------------------------|--------------------|-------------------------|
-------------------------|--------------------|-------------------------|
-------------------------|-------5------------|-------------------------|
--3--5--5--3--5----3--5--|----5---------------|--3--5--5--3--5----3--5--|


                                                                     
---------------------|-------------------------|--------------------|
---------------------|-------------------------|--------------------|
---------------------|-------------------------|-------5------------|
----5--3----0--------|--3--5--5--3--5----3--5--|----5---------------|


                                                                        
-------------------------|---------------------|-----------------------|
-------------------------|---------------------|-----------------------|
-------------------------|---------------------|--5--5--5--5--5--------|
--3--5--5--3--5----3--5--|----5--3----0--------|-----------------------|


                                                                         
-----------------------|-----------------------|------------------------|
-----------------------|-----------------------|------------------------|
--5--5--5--5--5--------|--5--5--5--5--5--------|--5--5--5--5--5--3------|
-----------------------|-----------------------|------------------------|


                                                                         
-------------------------|--------------------|-------------------------|
-------------------------|--------------------|-------------------------|
-------------------------|-------5------------|-------------------------|
--3--5--5--3--5----3--5--|----5---------------|--3--5--5--3--5----3--5--|


                                                                      
---------------------|-----------------------|-----------------------|
---------------------|-----------------------|-----------------------|
---------------------|--5--5--5--5--5--------|--5--5--5--5--5--------|
----5--3----0--------|-----------------------|-----------------------|


                                                                           
-----------------------|--------------------------|-----------------------|
-----------------------|--------------------------|-------5b--------------|
--5--5--5--5--5--------|--5--5--5--5--5--5--5--5--|--7---------7--6----5--|
-----------------------|--------------------------|-----------------------|


                                                                          
-------------------------|----------------------|------------------------|
-------------------------|----------------------|------------------------|
----------------------3--|-------------7--6--5--|---------------------3--|
----3--3--x-4---5--5-----|------5---------------|----3--4--5----5--5-----|


                                                                        
----------------------|-------------------------|----------------------|
----------------------|----4--5--6--------------|----------------------|
-------------7--6--5--|----------------------3--|-------------7--6--5--|
------5---------------|-------------5--5--3-----|------5---------------|


                                                                        
-----------------------|----------------------|------------------------|
-----------------------|----------------------|------------------------|
----3----3----------3--|-------------7--6--5--|---------------------3--|
--------------5--3-----|------5---------------|----3--4--5----5--5-----|


                                                                        
----------------------|-------------------------|----------------------|
----------------------|----4--5--6--------------|----------------------|
-------------7--6--5--|----------------------3--|-------------7--6--5--|
------5---------------|-------------5--5--3-----|------5---------------|


                                                                         
-----------------------|----------------------|-------------------------|
-----------------------|----------------------|----4--5--6--------------|
----3----3----------3--|-------------7--6--5--|----------------------3--|
--------------5--3-----|------5---------------|-------------5--5--3-----|


                                                                 
----------------------|--------------7--7--|--------------7--7--|
----------------------|--------------------|--------------------|
-------------7--6--5--|--------------------|--------------------|
------5---------------|--------------------|--------------------|


                                                               
---------------------|--------------------|------------------||
---------------------|--------------------|------------------||
---------------------|--3-----------------|------------------||
------------5--5-3---|-------5------------|------------------||
            
Submit corrections

comments powered by Disqus
↑ Back to top | Guns N Roses Bass for You're Crazy. Lyrics for acoustic guitar and electric guitar. Tablatures and chords are parodies/interpretations of the original songs. You may use it for private study, scholarship, research or language learning purposes only