>
 >
Youe Crazy

Youe Crazy Guitar Tabs

Guns N Roses - Youe Crazy chords, tabs, tablatures, lyrics

Guitar lessons | Add/correct | Request | Top 50 tabs Artists:  A B C D E F G H I J K L M N O P Q R S T U V W X Y Z 0-9

Youe Crazy Guitar Tabs – Guns N Roses

CD, Sheet music, Poster

Do you like Youe Crazy? Share with your friends now
Tabs
Standard Tuning down 1/2 step= Eb Ab Db Gb Bb eb

Legend:

P.H. = Pinch Harmonic
1/2 = half bend
1/4 = one fourth bend
Full = full bend
h = hammer-on
p = pull-off
x = pick scrape
\ - slide down
/ = slide up
() = ghost note
pm .. = palm mute


Intro/Verse:
e|--------|----------------------------------------------------|
B|--------|------------------------------------3--half---------|
G|--------|-----2----2--------2---------2------2---2^---(2)p0--|
D|--5--6--|-----2----2--------2---------2------0---------------|
A|--5--6--|-----0----0--------0---------0---0------------------|
E|--3--4--|-3-------------3---------3--------------------------|

e|-------------------------------------0-----------------------|
B|-------------------------------------0-----------------------|
G|-----2--2-----2------2---------------------------------------|
D|-----2--2-----2------2---------------------------------------|
A|-----0--0-----0------0---------------------------------------|
E|--3--------3------3-----0--3--4--0---------------------------|

Verse: Guitar 1 plays intro, Guitar 2 plays this w/wah...
e|-------------------------------------|-------------------------12-------|
B|-12h14-14-12-14---12-14--------------|----------------------12-----15^--|
G|-12h14-14-12-14---12-14------12------|-12h14-14-14-14-12h13--------full-|
D|----------------------------------14-|-12h14-14-14-14-------------------|
A|-------------------------------------|----------------------------------|
E|-------------------------------------|----------------------------------|

Pre-Chorus:
e|-----------------------------------------------------------------------|
B|-----------------------------------------------------------------------|
G|--7--7--7--7--7--x-x-7--7--7--7--7-x-x-7--7--7--7--7-x-x-7-7-7-7-7--5--|
D|--7--7--7--7--7--x-x-7--7--7--7--7-x-x-7--7--7--7--7-x-x-7-7-7-7-7--5--|
A|--5--5--5--5--5--x-x-5--5--5--5--5-x-x-5--5--5--5--5-x-x-5-5-5-5-5--3--|
E|-----------------------------------------------------------------------|

e|-------------------------------------------------------------|
B|-------------------------------------------------------------|
G|--9----------------------------------------------------------|
D|--9-----7---7---9---9---7---7---9---9----7---7---9---7---7---|
A|--7----------------------------------------------------------|
E|--0----------------------------------------------------------|
pm        ....................................................

e|------------------------------------|
B|------------------------------------|
G|--7--7--7--7--7--7--7--7---5--------|
D|--7--7--7--7--7--7--7--7---5----5---|
A|--5--5--5--5--5--5--5--5---3----5---|
E|--------------------------------3---|

Fill 1:
e|---------------------------------------------|
B|---------------------------------------------|
G|--7----7----7----7-----7-----7-----7-----7---|
D|--7----7----7----7-----7-----7-----7-----7---|
A|--5----5----5----5-----5-----5-----5-----5---|
E|---------------------------------------------|

Chorus:
e|-----------------------------------------------------------------------|
B|-----------------------------------------------------------------------|
G|---1/4 bend------------------------------------------------------------|
D|------5^----------------------------------------------1/4------9--8--7-|
A|--7--------7---6------5---------------------------3---(3^)-----7--6--5-|
E|---------------------------3--3--4-----5---5---5------------5----------|
pm                          ......

e|-------------------------------------------------------------|
B|-------------------------------------------------------------|
G|-------------------------------------------------------------|
D|---------------------------------------------1/4-----9--8--7-|
A|---------------------------------------------3^------7--6--5-|
E|--2--2--3--3--2--2--3--3--4--4--3--3--3--3--------5----------|
pm ..........................................

e|--------------------------------------------------------------------|
B|--------------------------------------------------------------------|
G|---------------------------------------------------------7-----(7)\-|
D|----------------------------1/4---------9--8--7----7-----7-----(7)\-|
A|--3----3----------------3--(3^)---------7--6--5----5-----5-----(5)\-|
E|-------------5----5--5------------5---------------------------------|

e|-----------------------|
B|-----------------------|
G|-----------------------|
D|-----------------------|
A|--2--2---5--5---4--4---|
E|--0--0---3--3---2--2---|

Interlude:
e|------------------------------------------------------------------------|
B|------------------------------------------------------------------------|
G|-------------------9--(9)\------9------------9--(9)\-----9\----------9\-|
D|-------------------9--(9)\------9------------9--(9)\-----9\----------9\-|
A|-2-----------------7--(7)\------7------------7--(7)\-----7\----------7\-|
E|-0--0--0--0--0--0-----------0---0---0--0--0-----------0--0--0--0--0-----|
pm    .............          ...      ........         ..     ........

e|--------------------------------------5--\-----------5--\------5-\-------5-\-|
B|--------------------------------------5--\-----------5--\------5-\-------5-\-|
G|-------5-----4-----2---------------------------------------------------------|
D|-------5-----4-----2-----------------------------------------------0-0-0-----|
A|-0--0--3-----2-----0---0--0--0--0--0--------0--0--0--------0-----------------|
E|-----------------------------------------------------------------------------|
pm ....                  ..............       ........      ...      ......

e|-----------------||
B|-----------------||
G|-----------------||o
D|----------5---4--||o
A|--0---0---5---4--||
E|----------3---2--||

Half time:
e|---------------------------------------------------------------------------|
B|---------------------------------------------------------------------------|
G|----2--2-------------------------------------------------------------------|
D|--2--2---2---2-----5---5-----------4---4-----------3---3-------------------|
A|-0---------0-----5---5---5---5---4---4---4---4---3---3---3--3--------------|
E|---------------3-----------3---2-----------2---1-----------1--000000000000-|
pm............................................................................

Solo: Guitar 2
e|--------7----------7-----------7--------7--------------------|
B|-full---7------7---7---7-------7--------7----9^^^------------|
G|--9^-------9^--------------9^------9^--------9^^^------------|
D|---------full--------------F-------F--------1/2 gradual------|
A|-------------------------------------------------------------|
E|-------------------------------------------------------------|
Solo: Guitar 1
e|-------------------------------------------------------------|
B|-------------------------------------------------------------|
G|------------------------------------------------9------------|
D|--7----9----9----7----9-------7----9--------7---9------------|
A|--7----9----9----7----9-------7----9--------7---7------------|
E|--5----7----7----5----7-------5----7--------5----------------|

     Guitar 2: continued
e|-------------------------------------------------------------|
B|-------------------------------------------------------------|
G|--9^-----7---------9----7--------7----7----------------------|
D|-1/2----------9--------------9-------------9----7------------|
A|-----------------------------------------------------9-------|
E|-------------------------------------------------------------|
     Guitar 1: continued
e|-------------------------------------------------------------|
B|-------------------------------------------------------------|
G|-------------------------------------------------------------|
D|--7---9---9---7---9-------7---9------7---7---------4---------|
A|--7---9---9---7---9-------7---9------7---7---------4---------|
E|--5---7---7---5---7-------5---7------5---5---------2---------|

     Guitar 1: continued
e|----------------------------------------7----------7-----7---|
B|-------------------------------------7-----7--10^----10------|
G|------------------------7h8-----7h8----------full------------|
D|-------------7-------9-------9-------------------------------|
A|--7---9---9-------9------------------------------------------|
E|-------------------------------------------------------------|
pm...............

     Guitar 1: continued
e|-----------------------------------17----17----17----17----17----17-----|
B|-10p9p7-9--7----------------17^^^----(17)--(17)--(17)--(17)--(17)--(17)-|
G|---------------9^-p7--9^---full hold------------------------------------|
D|-------------full---full------------------------------------------------|
A|------------------------------------------------------------------------|
E|------------------------------------------------------------------------|
     Guitar 1: continued
e|-17------------------7------------------------------------------------|
B|----17^---\----10^------10-----7h10p7----------7--10p7----------------|
G|---full------full----------------------10--9^----------9--9^----7---9-|
D|-------------------------------------------1/2-----------full---------|
A|----------------------------------------------------------------------|
E|----------------------------------------------------------------------|

     Guitar 1: continued
e|-------------------------------------------------------------|
B|-------------------------------------------------------------|
G|--7----------------------------------------------------------|
D|-----9---7------------------------P.H.-----------------------|
A|-------------9---8--8--7--7---5----7^------------------------|
E|-------------------------------------------------------------|
pm.................................

Outro: guitar 2
e|--10^------------10^-----------------------------------------|
B|--13^----\-------13^----13\----------------------------------|
G|-full-----------full-----------------------------------------|
D|--------------------------------------------1/4--------------|
A|------------------------------------------3--3^--------------|
E|--------------------------------5---5---5--------5-----------|
       guitar 1
e|-------------------------------------------------------------|
B|-------------------------------------------------------------|
G|------------7--7------------7--------------------------------|
D|-(7)--------7--7------------7---------------1/4--------------|
A|-(5)--------5--5------------5-------------3--3^--------------|
E|--------------------------------5---5---5--------5-----------|

Fill: 2
e|-----------------------------------------|
B|--------------------------------1/2------|
G|-------------5----------------5--5^------|
D|---7---7--7----------7--7---7----------7-|
A|-----------------------------------------|
E|-----------------------------------------|

There we go, good GNR song.  Should be all correct, i'm not sure of the order
but listen to the song and you'll be able to tell what goes where.





Comments


Popular Guns N Roses tabs & chords
Paradise City 2 Bass Tabs
14 Years Chords
Attitude 1 Chords
Bad Obbsession Tabs
Knocking On Heavens Door Tabs
Locomotive 2 Tabs
Look At Your Game, Girl Tabs
Out Ta Get Me Intro Tabs
Patience Intro Tabs
The Godfather Theme 3 Tabs


Song lyrics



↑ Back to top | Tablatures and chords are parodies/interpretations of the original songs. You may use it for private study, scholarship, research or language learning purposes only
© 2014 AZChords.com Contact us | Privacy policy | DMCA | Add/correct tabs | Request tabs | Top 50 tabs