» » »

Guns N Roses, Yesterday Tabs (ver.2)

Artists:  A B C D E F G H I J K L M N O P Q R S T U V W X Y Z # 

Yesterday Tabs (ver.2)

Guns N Roses Tabs
 Rating:
4/5 (4 votes)
Yesterday lessons Tabs too difficult? Try these video lessons and learn fast
1
                YESTERDAYS

tune your guitar down by a half step (b)

intro     play through verses aswell
E-----------0/1--------------------0/1------------0-----------------3--
B----------------3-----------------------3---------1---1--------3---3--
G----2--------------2--------2--------------2-----0-----0-----------0
D-0----0------------------0----0------------------2-----------------0
A---------------------------------------------------3-----------------2
E--------------------------------------------------------------3-------3

clean chorus
E--2-----2---------------------3---3------2----2----2------------3
B--3-----3-----1---------1----3---3------3----3----3------------3
G--2-----2-----0----0---0-----0--0-------2----2----2-----------0
D--0-----0-----2----0---2-----0----------0----0----0------4----0
A---------------3--------3-----2-----------------------------4----2
E--------------------------------3-----------------------------2----3


distorted chorus
E----------------------------------------------------
B------------------------------------------------------
G--2---------4-----5--------------------2-----4-----
D--2---------4-----5-------5-----------2-----4--------
A--0---------2-----3-------5-----------0-----2-----
E----------------------------3----------------------


solo
E----------------------------------------------------------------------------------
B---------------------------------------------------9b--9--------7---------------
G---------9b----9--9------7----7--9--7---7-------------7--9----------9-----7
D-9---------------------------9-----------9-------------------------9-------9---
A----------------------------------------------------------------------------------
E-----------------------------------------------------------------------------------


E-------------------------------------------------------------------------------------------------------------------
B-9b---9b--9b---9b-9b-9b---11b---11b--11b---11b-11b-11b---13b---13b--13b---13b-13b-13b-
G-------------------------------------------------------------------------------------------------------------------
D-------------------------------------------------------------------------------------------------------------------
A-------------------------------------------------------------------------------------------------------------------
E--------------------------------------------------------------------------------------------------------------------


E---------------------------------------------------------------------------------------------------------
B-15b----15--13----13--15--------13--15--13-------15b--15--13---------------15--15b--15--
G------------------15------------------------------15-------------------15--13------------------------
D-------------------------------14------------------------------------------------14-------------------
A-------------------------------------------------------------------------------------------------------
E---------------------------------------------------------------------------------------------------------
            
Submit corrections

comments powered by Disqus
↑ Back to top | Guns N Roses Tabs for Yesterday. Lyrics for acoustic guitar and electric guitar. 1 Tablatures and chords are parodies/interpretations of the original songs. You may use it for private study, scholarship, research or language learning purposes only