» » »

Guns N Roses, This I Love Tabs (ver.5)

Artists:  A B C D E F G H I J K L M N O P Q R S T U V W X Y Z # 

This I Love Tabs (ver.5)

Guns N Roses Tabs
 Rating:
4/5 (4 votes)
This I Love lessons Tabs too difficult? Try these video lessons and learn fast
1
                Guns N' Roses - This I Love 
Chinese Democracy
Feel Free To Rate And Comment

eb|--15b~~~~-----------------------15b-15b-15--13-13-12-----|
Bb|---------------------------------------------------------|
Gb|------------16~-14h16p14~~~------------------------------|
Db|---------------------------------------------------------|
Ab|---------------------------------------------------------|
Eb|---------------------------------------------------------|


eb|-----------19--20p19-17--20b-19br--------17------14-15----------------------------------|
Bb|--/17--20-------------------------20-/20----17-15------15br-13--12--13--15brb--15b--15br--|
Gb|------------------------------------------------------------------------------------------|
Db|------------------------------------------------------------------------------------------|
Ab|------------------------------------------------------------------------------------------|
Eb|------------------------------------------------------------------------------------------|

eb|------17-17-15--------------------------------------------------------------------|
Bb|----------------18--17h18---15---------15b-15b-15--15b-15br-----------------------|
Gb|---------------------------------14-17---------------------14-14-14-14h16h17------|
Db|-----------------------------------------------------------------------------14---|
Ab|----------------------------------------------------------------------------------|
Eb|----------------------------------------------------------------------------------|


eb|---------------19-17------17-19br-17-19-----20brb--20-----22~~b~~~~-|
Bb|----------17-20--------20---------------17--------------------------|
Gb|--14-17-------------------------------------------------------------|
Db|--------------------------------------------------------------------|
Ab|--------------------------------------------------------------------|
Eb|--------------------------------------------------------------------|

           
eb|-17\---15\--------------------------------------------------------------------------------|
Bb|-------------/18---------------15-17h18------------------------------------15-------------|
Gb|-----------------17-17-17-/17----------16-14h16-14-13-13-13h14-16-16br-14----16-16-16br---|
Db|------------------------------------------------------------------------------------------|
Ab|------------------------------------------------------------------------------------------|
Eb|------------------------------------------------------------------------------------------|
                                                                                
eb|-----------------------------------------------------------------------------|
Bb|----17~~~--17b-17br--17-15----15----15-17--------17~~~-17--15--17-15---------|
Gb|-14------------------------17----17-------17--------------------------17-14--|
Db|-----------------------------------------------------------------------------|
Ab|-----------------------------------------------------------------------------|
Eb|-----------------------------------------------------------------------------|

eb|-------15-17-16---------------------------------------------|
Bb|--15b~~~r-------17br15-13-12-13-15-13-----12-13-15-13-------|
Gb|--------------------------------------14--------------13-14-|
Db|------------------------------------------------------------|
Ab|------------------------------------------------------------|
Eb|------------------------------------------------------------|
            
Submit corrections

comments powered by Disqus
↑ Back to top | Guns N Roses Tabs for This I Love. Lyrics for acoustic guitar and electric guitar. 1 Tablatures and chords are parodies/interpretations of the original songs. You may use it for private study, scholarship, research or language learning purposes only