>
 >
The Godfather Theme 2

The Godfather Theme 2 Guitar Tabs

Guns N Roses - The Godfather Theme 2 chords, tabs, tablatures, lyrics

Guitar lessons | Add/correct | Request | Top 50 tabs Artists:  A B C D E F G H I J K L M N O P Q R S T U V W X Y Z 0-9

The Godfather Theme 2 Guitar Tabs – Guns N Roses

CD, Sheet music, Poster

Do you like The Godfather Theme 2? Share with your friends now
TabsTabs v2Tabs v3Tabs v4Tabs v5Tabs v6Tabs v7
-------------------------------|---------------------------------------|
-15----14-15-16-15-15----------|--15---14-15-16-15-15------------------|
-----------------------15~~~~\-|----------------------14~~~~\----------|
-------------------------------|---------------------------------------|
-------------------------------|---------------------------------------|
-------------------------------|---------------------------------------|

                           BR                   BR
-------------13----------------|---------------------------------------|
-15~~~-14-15----15-14-----15---|---------------14----------------------|
-------------------------------|--15--14--15----------14~~~~~\---------|
-------------------------------|---------------------------------------|
-------------------------------|---------------------------------------|
-------------------------------|---------------------------------------|

Drums (cymbal) & Piano In
-------13-12----13----12----------------|--------13-12----13----12-----
----15-------15----15----15----13-------|-----15-------15----15----15--
-14-------------------------15----14~~~-|--14--------------------------
----------------------------------------|------------------------------
----------------------------------------|------------------------------
----------------------------------------|------------------------------


------------------
-12-/-14-13-12~~~~
------------------
------------------
------------------
------------------

      BR                              BR          
---------------------------------------------------------------------|
-----15---------14-15~~~~--------------------------------------------|
---x------14-15-------------14-15-14--15--14~~-15--14----------------|
-x-----------------------------------------------------15--11--12----|
---------------------------------------------------------------------|
---------------------------------------------------------------------|





Comments


Popular Guns N Roses tabs & chords
So Fine Bass Tabs
Welcome To The Jungle 2 Bass Tabs
Knockin On Heavens Door 2 Chords
November Rain 2 Chords
Patience Drum Tabs
Knockin On Heavens Door 6 Tabs
Out Ta Get Me 1 Tabs
Sweet Child O' Mine 2 Tabs
Yesterday 1 Tabs
Sorry Ukulele


Song lyrics



↑ Back to top | Tablatures and chords are parodies/interpretations of the original songs. You may use it for private study, scholarship, research or language learning purposes only
© 2014 AZChords.com Contact us | Privacy policy | DMCA | Add/correct tabs | Request tabs | Top 50 tabs