>
 >
The Garden

The Garden Guitar Tabs

Guns N Roses - The Garden chords, tabs, tablatures, lyrics

Guitar lessons | Add/correct | Request | Top 50 tabs Artists:  A B C D E F G H I J K L M N O P Q R S T U V W X Y Z 0-9

The Garden Guitar Tabs – Guns N Roses

CD, Sheet music, Poster

Do you like The Garden? Share with your friends now
Drum TabsTabs
tune your guitar down a half step

D#||------------------------|---------2--2-2----2------------|
A#||------------------------|---------1--1-1----1------------|
F#||------------------------|---------2--2-2----2------------|
C#||------------------------|--4p0----0------0---------------|
G#||--------------3h5p3---0-|----------------------3h5p3---0-|
C#||--------------------6---|------0---------------------6---|



---------2---2----2------------|-------------0----------------|
---------0---0----0------------|---------3---3---3------------|
---------2---2----2------------|---------3-------3------------|
--3p0----0---------------------|--3p0----0-------0------------|
---------------0-----3h5p3---0-|--------------------3h5p3---0-|
------0--------------------6---|------0-------------------6---|



---------2--2-2----2------------|---------2--2-2----2------------|
---------1--1-1----1------------|---------1--1-1----1------------|
---------2--2-2----2------------|---------2--2-2----2------------|
--4p0----0------0---------------|--4p0----0------0---------------|
----------------------3h5p3---0-|----------------------3h5p3---0-|
------0---------------------6---|------0---------------------6---|



---------2---2----2------------|-------------0h2---------------|
---------0---0----0------------|---------3---3-3--3------------|
---------2---2----2------------|---------3--------3------------|
--3p0----0---------------------|--3p0----0--------0------------|
---------------0-----3h5p3---0-|---------------------3h5p3---0-|
------0--------------------6---|------0--------------------6---|



---------2--2-2----2------------|---------2--2-2----2------------|
---------1--1-1----1------------|---------1--1-1----1------------|
---------2--2-2----2------------|---------2--2-2----2------------|
--4p0----0------0---------------|--4p0----0------0---------------|
----------------------3h5p3---0-|----------------------3h5p3---0-|
------0---------------------6---|------0---------------------6---|

Verse

---------2---2----2------------|-------------0----------------|
---------0---0----0------------|---------3---3---3------------|
---------2---2----2------------|---------3-------3------------|
--3p0----0---------------------|--3p0----0-------0------------|
---------------0-----3h5p3---0-|--------------------3h5p3---0-|
------0--------------------6---|------0-------------------6---|



---------2--2-2----2------------|---------2--2-2----2------------|
---------1--1-1----1------------|---------1--1-1----1------------|
---------2--2-2----2------------|---------2--2-2----2------------|
--4p0----0------0---------------|--4p0----0------0---------------|
----------------------3h5p3---0-|----------------------3h5p3---0-|
------0---------------------6---|------0---------------------6---|



---------2---2----2------------|-------------0----------------|
---------0---0----0------------|---------3---3---3------------|
---------2---2----2------------|---------3-------3------------|
--3p0----0---------------------|--3p0----0-------0------------|
---------------0-----3h5p3---0-|--------------------3h5p3---0-|
------0--------------------6---|------0-------------------6---|



---------2--2-2----2------------|---------2--2-2----2------------|
---------1--1-1----1------------|---------1--1-1----1------------|
---------2--2-2----2------------|---------2--2-2----2------------|
--4p0----0------0---------------|--4p0----0------0---------------|
----------------------3h5p3---0-|----------------------3h5p3---0-|
------0---------------------6---|------0---------------------6---|



---------2---2----2------------|-------------0----------------|
---------0---0----0------------|---------3---3---3------------|
---------2---2----2------------|---------3-------3------------|
--3p0----0---------------------|--3p0----0-------0------------|
---------------0-----3h5p3---0-|--------------------3h5p3---0-|
------0--------------------6---|------0-------------------6---|



---------2---2----------|------------------|------------------|
---------1---1---1------|------------------|------------------|
---------2---2---2------|------------------|------------------|
--4p0----0-------0------|------------------|------------------|
------------------------|------------------|------------------|
------0-----------------|------------------|------------------|


-------------------|----------------------|----------------------|
-------------------|-------------7--7r-7--|-------------7--7r-7--|
----------3b-------|--7~------------------|--5~------------------|
-------------------|----------------------|----------------------|
-------------------|----------------------|----------------------|
-------------------|----------------------|----------------------|



---------------------|-----------------10----|--10~---------10b---14--12~-|
-----------5b-----7~-|----------3~--------10-|----------10----------------|
--4~-----------------|-----------------------|----------------------------|
---------------------|-----------------------|----------------------------|
---------------------|-----------------------|----------------------------|
---------------------|-----------------------|----------------------------|



--------12b---12r---10~-|--------------10--------|-----------------------|
------------------------|--------10b-------8--7--|----5b-5---------------|
------------------------|------------------------|------------5r-5~---7~-|
------------------------|------------------------|-----------------------|
------------------------|------------------------|-----------------------|
------------------------|------------------------|-----------------------|

turned into my worst phobia...


------------------|---------------------------------|--------------------------|
------------------|---------------------------------|--------------------------|
------------------|--5/7-----7\----10----9/10-------|--7/9---9-9\----5----5----|
------------------|--5/7-7-7-7\----10--x-9/10-10-10-|--7/9-9-9-9\----5--x-5----|
------------------|--3/5-5-5-5\----8---x-7/8--8--8--|--5/7-7-7-7\----3--3-3----|
------------------|---------------------------------|--------------------------|



---------------------------------|--------------------------|
---------------------------------|--------------------------|
--5/7-----7\----10----9/10-------|--7/9---9-9\----5----5----|
--5/7-7-7-7\----10--x-9/10-10-10-|--7/9-9-9-9\----5--x-5----|
--3/5-5-5-5\----8---x-7/8--8--8--|--5/7-7-7-7\----3--3-3----|
---------------------------------|--------------------------|



---------------------------------|--------------------------|
---------------------------------|--------------------------|
--5/7-----7\----10----9/10-------|--7/9---9-9\----5----5----|
--5/7-7-7-7\----10--x-9/10-10-10-|--7/9-9-9-9\----5--x-5----|
--3/5-5-5-5\----8---x-7/8--8--8--|--5/7-7-7-7\----3--3-3----|
---------------------------------|--------------------------|



---------------------------------|--------------------------|------------------|
---------------------------------|--------------------------|------------------|
--5/7-----7\----10----9/10-------|--7/9---9-9\----5----5----|------------------|
--5/7-7-7-7\----10--x-9/10-10-10-|--7/9-9-9-9\----5--x-5----|------------------|
--3/5-5-5-5\----8---x-7/8--8--8--|--5/7-7-7-7\----3--3-3----|------------------|
---------------------------------|--------------------------|------------------|


---------------------|----------------------|----------------------|
------------7--7r-7--|-------------7--7r-7--|-----------5b---8--7--|
-5b------------------|--7~------------------|--4~------------------|
---------------------|----------------------|----------------------|
---------------------|----------------------|----------------------|
---------------------|----------------------|----------------------|



---------10--10--10b---12--|--12b---------14--14r---|--12r-----12----12r---10--|
----7b---------------------|------------------------|--------------------------|
---------------------------|------------------------|--------------------------|
---------------------------|------------------------|--------------------------|
---------------------------|------------------------|--------------------------|
---------------------------|------------------------|--------------------------|



--10----------------------|---------------------|
----------10b---10--8--7--|---------------------|
--------------------------|----7--5r-5b---------|
--------------------------|---------------------|
--------------------------|---------------------|
--------------------------|---------------------|

Guitar Solo

------------10----------------------------------------------|
--13b----10----13p10-13p12p10----10h13p10----10----10-13p10-|
------------------------------13----------13----12b---------|
------------------------------------------------------------|
------------------------------------------------------------|
------------------------------------------------------------|



-----10h13p10----10----10---------------------------------------|
--12b---------12b---12b---13p12h10-12~-12-10----12----10~-12-10-|
---------------------------------------------12----12-----------|



--------------------------------13b-------|
--------15----15-----15~--15--------15-13-|
--12/14----14-----14---------14-----------|
------------------------------------------|
------------------------------------------|
------------------------------------------|



--15b15-15p13----16p---15~-15p13-15-15r-15-13-|
--------------15------------------------------|
----------------------------------------------|
----------------------------------------------|
----------------------------------------------|
----------------------------------------------|



--15b-13b--------------------------------|
----------15--------------------------13b|
--------------x-12b12r10-10b10-----------|
-------------------------------12--10----|
-----------------------------------------|
-----------------------------------------|



---10-10----10-----------------------------------|
---------13----10--------------------------------|
------------------13~-10-12-12r12p10-12-10-------|
-------------------------------------------12-10-|
-------------------------------------------------|
-------------------------------------------------|



--------------------------------------------------|
--10----------------------------------------------|
--10----------------------------------------------|
-----12-10\9-10-9------------------------------10-|
------------------12p11-12-10r-10p8-10-8-10/12----|
--------------------------------------------------|



--------------------------------------------------------10h12----10h12/15---|
-----------------------------12----10-12p10----10-12h13-------13------------|
-----------10----10-12b10-12----12----------12------------------------------|
--12p10-12----12------------------------------------------------------------|



--20b-----17-16-15-------------------|
-------------------17b-17~--17p15----|
----------------------------------14-|
-------------------------------------|
-------------------------------------|
-------------------------------------|



--18-17h18p17p15----18-17h18p17p15----18-17h18p17p15----17b-17-15-|
-----------------16----------------16----------------16-----------|



------20-----20--------------------|
--20b----20b----20r-18-20-18r------|
-----------------------------------|
-----------------------------------|
-----------------------------------|
-----------------------------------|



-----------------------------------------------|--------------------|
--17~--17b17-18p17----17-----------------------|--------------------|
-------------------19----19-17-----------------|--------------------|
-------------------------------19-17--15-17-17-|--------------------|
-----------------------------------------------|--15b---------------|
-----------------------------------------------|--------------------|

another verse and then :

--------------14--14r-14--|--14b---------14--14r-14--|
--15~---------------------|--------------------------|
--------------------------|--------------------------|
--------------------------|--------------------------|
--------------------------|--------------------------|
--------------------------|--------------------------|



--14b---------14--14b-14--|--14b---------------|
--------------------------|--------------------|
--------------------------|--------------------|
--------------------------|--------------------|
--------------------------|--------------------|
--------------------------|--------------------|



--8b-10-10-10--10-10--10---------|--------------------|----------------------|
--8b-10-10-10--10-10--10---------|--------------------|----------------------|
---------------------------10b---|--12b---------------|--17b-----------24b---|
---------------------------------|--12b---------------|--17b-----------24b---|
---------------------------------|--------------------|----------------------|
---------------------------------|--------------------|----------------------|



--------------------|---------------------|---------------------|
------22\-----------|---------------------|---------------------|
------22\-----------|--12\---7------------|---------------------|
------22\-----------|--12\---7------------|------------9/-12\---|
--------------------|---------------------|---------------------|
--------------------|---------------------|---------------------|



-------------------|-----------------------|----------------------|
-------------------|-----------------------|----------------------|
-------------------|--4/---10/-12\---------|--------11/-14~-------|
----------3~-------|-----------------------|----------------------|
-------------------|-----------------------|----------------------|
-------------------|-----------------------|----------------------|



----------------------|--------------------|--------------------|
----------------------|--------------------|--------------------|
--14\-12~-------------|--12\---------------|--------7\-5\-------|
----------------------|--------------------|--------7\-5\-------|
----------------------|--------------------|--------------------|
----------------------|--------------------|--------------------|



----------17b-------|--19~----------19r----|--20~-------20r-------|
--------------------|----------------------|----------------------|
--------------------|----------------------|----------------------|
--------------------|----------------------|----------------------|
--------------------|----------------------|----------------------|
--------------------|----------------------|----------------------|



--19~---------19--19\---|--16~-----------16\-13--|--12~---------------|
------------------------|------------------------|--------------------|
------------------------|------------------------|--------------------|
------------------------|------------------------|--------------------|
------------------------|------------------------|--------------------|
------------------------|------------------------|--------------------|



--13~-------12r-------|--12~-----------12b---|--17~-------17r-------|
----------------------|----------------------|----------------------|
----------------------|----------------------|----------------------|
----------------------|----------------------|----------------------|
----------------------|----------------------|----------------------|
----------------------|----------------------|----------------------|



--19~-----------19\---|--13~-------12r-------|--12~-----------12b---|
----------------------|----------------------|----------------------|
----------------------|----------------------|----------------------|
----------------------|----------------------|----------------------|
----------------------|----------------------|----------------------|
----------------------|----------------------|----------------------|



--17~-------17r-------|--19~-----------19\---|--13~-------12r-------|
----------------------|----------------------|----------------------|
----------------------|----------------------|----------------------|
----------------------|----------------------|----------------------|
----------------------|----------------------|----------------------|
----------------------|----------------------|----------------------|



--12~-----------12b---|--17~-------17r-------|--19~-----------19\---|
----------------------|----------------------|----------------------|
----------------------|----------------------|----------------------|
----------------------|----------------------|----------------------|
----------------------|----------------------|----------------------|
----------------------|----------------------|----------------------|



--13~-------12r-------|--12~-----------12b---|--17~-------17r-------|
----------------------|----------------------|----------------------|
----------------------|----------------------|----------------------|
----------------------|----------------------|----------------------|
----------------------|----------------------|----------------------|
----------------------|----------------------|----------------------|



--19~-----------19\---|----------12r-------||
----------------------|--------------------||
----------------------|--------------------||
----------------------|--------------------||
----------------------|--------------------||
----------------------|--------------------||

during the last solo the rythem guitar does this riff:


---------------------8----7/8-8-8-|--5-7-7-7-7\---------------|
--8/10-10-10-10~------------------|---------------x-8--x-8----|
-------------------x-5--x-4/5-5-5-|--2-4-4-4-4\---------------|  x 12
--5/7--7--7--7~----x-7--x-6/7-7-7-|--4-6-6-6-6\---x-5--x-5----|
----------------------------------|---------------------------|
----------------------------------|---------------------------|


---------------------8----7/8-8-8-||
--8/10-10-10-10~------------------||
-------------------x-5--x-4/5-5-5-||
--5/7--7--7--7~----x-7--x-6/7-7-7-||
----------------------------------||
----------------------------------||

and also this part is played

----------------------------|------------------------------|
-----------10--x-9/10-10-10-|--7/9-10-10-10\---------------|
----------------------------|------------------x-9--x-9----|
-----------7---x-6/7--7--7--|--4/6-6--6--6\----------------|
----------------------------|------------------x-7--x-7----|
----------------------------|------------------------------|



---------------------13----12/13-13-13-|--10/12-12-12-12\---x-8---x-8-----|
---------------------------------------|--------------------x-8---x-8-----|
--9/11-11-11-11----x-14--x-13/14-14-14-|--11/13-13-13-13\-----------------| x11
---------------------------------------|----------------------10----10----|
--7/9--9--9--9-----x-12--x-11/12-12-12-|--9/-11-11-11-11\---x-10--x-10----|
---------------------------------------|----------------------------------|


--12/13-13-13-13------13----12/13-13-13-||
--------10-10-10------------------------||
--9/-10-10-10-10----x-14--x-13/14-14-14-||
--------------------x-----x-------------||
--7/-8--8--8--8-----x-12--x-11/12-12-12-||
----------------------------------------||





Comments


Popular Guns N Roses tabs & chords
Buick Makane Bass Tabs
I Used To Love Her Bass Tabs
Crash Diet Chords
If The World Chords
Chinese Democracy 4 Tabs
Locomotive Tabs
Patience Intro Tabs
Sweet Child O Mine Intro 1 Tabs
Talkin Double Jive Tabs
Train Kept A Rollin Tabs


Song lyrics



↑ Back to top | Tablatures and chords are parodies/interpretations of the original songs. You may use it for private study, scholarship, research or language learning purposes only
© 2014 AZChords.com Contact us | Privacy policy | DMCA | Add/correct tabs | Request tabs | Top 50 tabs