» » »

Guns N Roses, Sweet Child O Mine With Lyrics Tabs (ver.1)

Artists:  A B C D E F G H I J K L M N O P Q R S T U V W X Y Z # 

Sweet Child O Mine With Lyrics Tabs (ver.1)

Guns N Roses Tabs
 Rating:
4/5 (4 votes)
Sweet Child O Mine With Lyrics lessons Tabs too difficult? Try these video lessons and learn fast
1
                Tuning:EADGBe
Amp Settings:
Drive:6.5
Treble:7
Bass:5
Middle:6
Reverb:0
( (:dend up
) ):dend down
h:hammer on
p:pull off
[ ]:left hand tapping
x:mute

Intro
0:00
0:15
0:30       w/neck p/u + dist.
|--------------------------------|
|-------15--------15----14-------|
|-----------14-12----14-----14---|
|---12---------------------------|       x10
|--------------------------------|
|--------------------------------|

|-------------------------------|
|-------15--------15----14------|
|-----------14-12----14----14---|
|---14--------------------------|  x2  
|-------------------------------|
|-------------------------------|

|---------------15------14------|
|-------15----------------------|
|---12----14-12-----14-----14---|
|-------------------------------|    x2
|-------------------------------|
|-------------------------------|

|------------------15-----14------|
|-------15------------------------|
|-----------14-12-----14-----14---|
|---12----------------------------|    x2
|---------------------------------|
|---------------------------------|

|---12------------12-----14-------|
|-----------15--------------------|
|-------14-----14-----14-----14---|      
|---------------------------------|      
|---------------------------------|
|---------------------------------|

                                       
|---15-----14-----12------------------|
|----------------------------15~~~~---|
|-------14-----14------14-------------|
|-------------------------------------|
|-------------------------------------|

Verse
0:46
1:47
|------------10-----------3---3------3--------------------2~~~~---|
|---13----------13--------3------3-------3-----------3------------|
|---12---------------12---0------------------0-------2------------|
|---14-----------------------------------------------0------------|
|-----------------------------------------------------------------|
|-----------------------------------------------------------------|

|-----------2-0--2-----------3-2-0-------------------0-----------------|
|------3--------------3---------------3--------3----------3-3----------|
|--------2---------------0-2-------------0-------0-------------0---0---|
|---0----------------------------------------2-------2-------------2---|
|----------------------------------------------------------------------|
|----------------------------------------------------------------------|

|-------------------------------------------------------|
|---------3-------------3--------------0----------------|
|------------0------------------0------------3----------|
|---------------------------------------------------0---|
|---0h2-------------------------------------------------|
|-------------------------------------------------------|

|------------2--------3------------2---|
|---------3---3-----------3------------|
|------2--------2-----------2----------|
|---0-------------0------------0-------|
|--------------------------------------|
|--------------------------------------|

Chorus       w/dist
|------------------------------------|
|-------14----------15------14-------|
|-----------14----------14------14---|
|---11---------14--------------------|
|------------------------------------|
|------------------------------------|

|---------------------13-----12----|
|-------13-------------------------|
|------------12-10-----12-----12---|
|---10-----------------------------|
|----------------------------------|
|----------------------------------|

|----------------15------14--------|
|-------15-------------------------|
|-----------14-12-----14------14---|
|---12-----------------------------|    x2
|----------------------------------|
|----------------------------------|

|-------------------------------------
---|
|-------14---------15-----14--------|
|-----------14---------14------15---|
|---11--------14----------------------|
|----------------------------------------|
|----------------------------------------|

|----------------------13------12----------------|
|-------13----------------------------------15---|
|-----------12------------12------12/14-------|
|---10---------10--------------------------------|
|---------------------------------------------------|
|---------------------------------------------------|

Solo/Melody
|----------------------------------------------------------------------|
|---10p8--7---10-8--7--10p8--------10p8--------10p8---|
|--------------------------------------9--------------9--------------|
|----------------------------------------------------------------------|
|----------------------------------------------------------------------|
|----------------------------------------------------------------------|

|-----------------------------------------12---10--------------------------------------------------10-------------|
|---10p8--)12)-)10)p8--10-(12(--------------9-(11(-8----10/8-)8)-)7)--7-(8(~~~~---7-(8(---x---|
|-------------------------------------------------------------------------------------7-------------------------------|
|----------------------------------------------------------------------------------------------------------------------|
|----------------------------------------------------------------------------------------------------------------------|
|-----------------------------------------------------------------------------------------------------------------------|

|------------------------------10-10/8/12-12-12/10----------------------|
|---10p8-7--10p8-7/12-----------------------------15/13-12-(13(---|
|---------------------------------------------------------------------------------|
|---------------------------------------------------------------------------------|
|---------------------------------------------------------------------------------|
|---------------------------------------------------------------------------------|

|---------------------------------------------------------------------------------------17----------------|
|---)12)---------------------------------------15-15-(17(-(15(-17-(19(~~~~~~~~~~~~~---|
|---------12------)16)-)14)-12-14-(16(------------------------------------------------------------|
|--------------12-----------------------------------------------------------------------------------------|
|-----------------------------------------------------------------------------------------------------------|
|-----------------------------------------------------------------------------------------------------------|

Verse

Chorus
|-----------------------------------2-(3(-)3)-)2)----------------------------------------------------------------------------|
|--------------------------------3-----------------3----------------------------------------------3--x-x--3-3-3-3-3-3---|
|---2--2--x-x--5--x-5--x-x--2-------------------2p0-----------2--2--x-x--5--x-5--x-x--2--x-x--2-2-2-2-2-2---| x2
|---2--2--x-x--5--x-5--x-x--0------------------------4p2p0--2--2--x-x--5--x-5--x-x--0--x-x--0-0-0-0-0-0----|
|---0--0--x-x--3--x-3--x-x---------------------------------------0--0--x-x--3--x-3--x-x-------------------------------|
|------------------but on second time add in six more 3 and at the end play one stroke of 3----------|
                                                                                    2                                                          1
                                                                                    0

Solo 1
|---17-)19)~~~~)17)-15-14-14h15p14p12~~~~-15-14-15-14-12/11-12-14---------------------------------------------|
|----------------------------------------------------------------------------------------------------)17)-)15)-12----------------------------|
|---------------------------------------------------------------------------------------------------------------------)16)-)14)-12-11h12-|
|-------------------------------------------------------------------------------------------------------------------------------------------------|
|-------------------------------------------------------------------------------------------------------------------------------------------------|
|-------------------------------------------------------------------------------------------------------------------------------------------------|

|--------------------------------------------------------------------------------------------------------------15-(17(-)15)--------------|
|---------------------------13-12h13p12p10~~~13-(15(---13-12-12~~~~12(13(-)12)-----------------------------------|
|--------------11-12-14-------------------------------------------------------------------------------14------------------11-(12(---|
|---14~~~~-------------------------------------------------------------------------------------------------------------------------------|
|---------------------------------------------------------------------------------------------------------------------------------------------|
|---------------------------------------------------------------------------------------------------------------------------------------------|


|--------------------------------------------------------------------------------------------------------|
|--------------------------------------------------------------------------------------------------------|
|---)11)-9-9~~~~11(12(-)11)-9-9~~~8-(9(-8-[8]h11-11(12(-)11)-9-----------------|
|---------------------------------------------------------------------------------------9/10-9-10---|
|--------------------------------------------------------------------------------------------------------|
|--------------------------------------------------------------------------------------------------------|

|---------------------------------------------------------------------------------------------------11--------11-12/14-11-12---|
|--------------------------------------------------------------------7h8p7-7-10/12-13p12---12h13-------------------------|
|---9~~~11(12(-)11)-9-8(9(-8-[8]h11-9-(11(~~~8-9---------9---------------------------------------------------------|
|----------------------------------------------------------------------------------------------------------------------------------------|
|----------------------------------------------------------------------------------------------------------------------------------------|
|----------------------------------------------------------------------------------------------------------------------------------------|



Verse
She's got a smile that it seems to me 
re-minds me of my child-hood
memories where everything was as fresh as the bright blue sky
now and then,
when i think of her face,
it takes me away to that special place and if i stared too long,
i'd probably break down and cry       Whoa-

Chorus
whoa whoa sweet child of mine  whoa
oh oh oh sweet love of mine

Verse 2
She's got eyes of the bluist skies,
as if they thought of rain,
i hate to look into those eyes and see an ounce of pain,
her hair reminds me of a warm safe place,
 where as a child i'd hide,
and pray for thunder,
and the rain to,
pass me by.

Chorus
Whoa oh oh oh sweet child of mine Ooh
Whoa oh oh oh sweet love of mine
Whoa oh oh oh sweet child of mine 
Ooh yeah yeah
Ooh sweet love of mine      ah!

Solo 1

sorry that its not the hole solo i'll put the the rest in later!!!!

thanks!
            
Submit corrections

comments powered by Disqus
↑ Back to top | Guns N Roses Tabs for Sweet Child O Mine With Lyrics. Lyrics for acoustic guitar and electric guitar. 1 Tablatures and chords are parodies/interpretations of the original songs. You may use it for private study, scholarship, research or language learning purposes only