» » »

Guns N Roses, Sweet Child O Mine Second Chords (ver.1)

Artists:  A B C D E F G H I J K L M N O P Q R S T U V W X Y Z # 

Sweet Child O Mine Second Chords (ver.1)

Guns N Roses Tabs
 Rating:
4/5 (4 votes)
Sweet Child O Mine Second lessons Tabs too difficult? Try these video lessons and learn fast
                (Guitar)
This is the second guitar part.
Figure A
Build up 1st time. Hold for 4 beets   Hold for 4 beets
  X2 1(2)&(3)&4    X2 1(2)&(3)&4      X2 1(2)&(3)&4         Build up
e-|------------|--------------------|---------------------|--------
b-|------------|--------------------|---------------------|--------
g-|------------|--------------------|---------------------|--------
d-|-7----------|-5------------------|---------------------|----7---
a-|-5----------|-3------------------|----5----------------|----5---
e-|------------|--------------------|----3----------------|--------
     Figure B   Listen to song to get the picking pattern
e-|------------|--------------------|
b-|------------|--------------------|-----------------------------
g-|------------|--------------------|-----------------------------
d-|------------|-1-1------5-7-------|-----------------------------
a-|------------|-0-0--2-3-3-5-------|-----------------------------
e-|------------|--------------------|-----------------------------
      Figure c       Hit 2 times     Figure D Hit 2 times     
e-|------------|--------------------|-----------------------------
b-|------------|--------------------|-----------------------------
g-|---3--3-----|--------------------|---3-------------2-----------
d-|---2--2-----|----7-6----2222-----|---3-----2--5555-0-----------
a-|---2--2-----|----5-4----0000-----|---2--5--0--3333-------------
e-|------------|----------------320-|------3-------------3--------

play it in this order               
AA|AA|BB|A|AA|BB|AA|BBBB|CCCC|DDDD|DDDD|DDD

no distrotion for 2nd set of a 3rd n 4th set of a 5th set of a and 2nd set of d
            
Submit corrections

comments powered by Disqus
↑ Back to top | Guns N Roses Chords for Sweet Child O Mine Second. Lyrics for acoustic guitar and electric guitar. Tablatures and chords are parodies/interpretations of the original songs. You may use it for private study, scholarship, research or language learning purposes only