» » »

Guns N Roses, Sweet Child O Mines Tabs (ver.6)

Artists:  A B C D E F G H I J K L M N O P Q R S T U V W X Y Z # 

Sweet Child O Mines Tabs (ver.6)

Guns N Roses Tabs
 Rating:
4/5 (4 votes)
Sweet Child O Mines lessons Tabs too difficult? Try these video lessons and learn fast
                (Outro)
Riff 1
E5         G5         A5        C5       D5
-------------------------------------------------
-------------------------------------------------
-------------------------------------------------
2-2--------5-5--------7-7-------10-10---12-------
2-2--------5-5--------7-7-------10-10---12-------
0-0----0-2-3-3----3-4-5-5-------8--8----10-------


Example (w/Riff 1)
E5              G5           A5                 C5  D5
Where do we go, Sweet child, Where do we go now



Riff 2         
-----------------------------------------
-----------fb15-15-12-----------------------
----------------------b14-14-12-----------
--------------------------------14-------------
------------------------------------------
--------------------------------------------
this is wher axl sings who, who,who ,who who who, who ,who 
hm. Well enyoy
            
Submit corrections

comments powered by Disqus
↑ Back to top | Guns N Roses Tabs for Sweet Child O Mines. Lyrics for acoustic guitar and electric guitar. Tablatures and chords are parodies/interpretations of the original songs. You may use it for private study, scholarship, research or language learning purposes only