» » »

Sweet Child O Mines Tabs (ver.5)

Artists:  A B C D E F G H I J K L M N O P Q R S T U V W X Y Z # 

Sweet Child O Mines Tabs (ver.5)

Guns N Roses
Rating:
0/5 (0 votes)

Hard to play? Try these video lessons and learn fast.
                (Intro)
Intro:

     				 
e:|--------------14----13-----|--------------14----13-----|
B:|-----14--------------------|-----14--------------------|
G:|:-------13-11----13----13-:|:-------13-11----13----13-:|
D:|--11-----------------------|--13-----------------------|
A:|---------------------------|---------------------------|
E:|---------------------------|---------------------------|

                                
e:|--------------14----13-----|--------------14----13-----|
B:|-----14--------------------|-----14--------------------|
G:|:-11----13-11----13----13-:|:-------13-11----13----13-:|
D:|---------------------------|--11-----------------------|
A:|---------------------------|---------------------------|
E:|---------------------------|---------------------------|
            
Hard to play? Try these video lessons and learn fast. | Correct




comments powered by Disqus
↑ Back to top | Tablatures and chords are parodies/interpretations of the original songs. You may use it for private study, scholarship, research or language learning purposes only