» » »

Sweet Child O Mine Harmonic Tabs (ver.1)

Artists:  A B C D E F G H I J K L M N O P Q R S T U V W X Y Z # 

Sweet Child O Mine Harmonic Tabs (ver.1)

Guns N Roses
Rating:
0/5 (0 votes)

Hard to play? Try these video lessons and learn fast.
                (Intro)
This is for all those diehard GNR fans out there! Let me know if

This tab was interpreted and created by Ben Walden 


This is all in harmonics...
e|---------------------------------------|
B|*---------------7-----------------7----|
G|-----7---12-5----------7---12-5--------|
D|--12---7------7---7-12---7------7---7--|
A|*--------------------------------------|
E|---------------------------------------|

e|------------------------------------|
B|---------------7----------------7---|
G|----7---12-5---------7------5-------|
D|------7------7---7-----7-12---7---7-|
A|--7----------------7----------------|
E|------------------------------------|

e|----------------------------------------|
B|----------------7-----------------7----*|
G|--12-7---12-5-------12-7---12-5---------|
D|-------7------7---7------7------7---7---|
A|---------------------------------------*|
E|----------------------------------------|

Repeat above three times then go into:

E|-12---12-------12---|
B|---------7---7------|
G|----7------5------7-|
D|--------------------|
A|--------------------|
E|--------------------|
            
Hard to play? Try these video lessons and learn fast. | Correct




comments powered by Disqus
↑ Back to top | Tablatures and chords are parodies/interpretations of the original songs. You may use it for private study, scholarship, research or language learning purposes only