» » »

Guns N Roses, Sweet Child O Mines Bass tabs (ver.1)

Artists:  A B C D E F G H I J K L M N O P Q R S T U V W X Y Z # 

Sweet Child O Mines Bass tabs (ver.1)

Guns N Roses Tabs
Rating:
0/5 (0 votes)
Sweet Child O Mines lessons Tabs too difficult? Try these video lessons and learn fast
                GUNS N' ROSES - Sweet Child O'mine from "Appetite For Destruction"

Intro:
G|----------------------------------------------------------|
D|----------------------------------------------------------|
A|-4------2-------------4---4-4-4-4-4-4-4-4-4-4-4-4-4-4-4-4-|
E|------------2-------2-------------------------------------|

G|--------------------------------------------------------------------|
D|-----------4-3-1---------2-1-2-1-----------2-3-4----------------4-3-|
A|-4-44-44-44---4-2-22-22-2---2---2-4-------4-----0-2-3-4-44-44444----|
E|-----------------------------------2-22-22--------------------------|

Verse:
G|---------------------------------------------------------------|
D|-----------4-3-----------4-2-----------2-3-4---------------4-3-|
A|-4-44-44-44---4-2-22-22-2---4-2-------4------2-3-4-44-44444----|
E|-------------------------------2-22-22------4------------------|

Chorus:
G|------------------------------------------------------------------|
D|----666664---------------------666664--------------------666664---|
A|-4-4------6-4----1-2-2--24-44-4------64----1-2-2--24-44-4---------|
E|-------------4-44----------------------4-44--------------------64-|

Bridge:
G|----------------------------------------------------|------------------|
D|-1-1111-------------------1-1111--------------------|------------------|
A|-------2-2222-1-1111------------2-2222-1-1111-------|------------------|
E|--------------------4-4444-------------------4-4444-|-4444444444444444-|

Ending:
G|----------------------------------------------------------------------|
D|-1-1--------------------1-1-------------------1-1---------------------|
A|------------------22224-----------------22224-----------------22224---|
E|----1-2--2-2-4--4------2---1-2--2-2-4--4-----2---1-2--2-2-4--4------2-|

G|----------------------------------------------------|
D|-1-1-----------------------1-1----------------------|
A|----------------------2224---------------------2224-|
E|----1-2--2----4--4--------2---1-2--2----4--4-------2|

G|---------------------------------------------------------------------|
D|-1111111-------------------------1-1--------------------1--------1-1-|
A|-------------------------222242--------------------22224-4-1-0-------|
E|--------12222222244444444------42---1-2--2-2-4--4-4-----2-----4-2----|

G|-------------------------------|
D|-----------------------------1-|
A|----------------1-2---4--------|
E|-1-2--2----4-------------------|
            

comments powered by Disqus
↑ Back to top | Guns N Roses Bass for Sweet Child O Mines. Lyrics for acoustic guitar and electric guitar. Tablatures and chords are parodies/interpretations of the original songs. You may use it for private study, scholarship, research or language learning purposes only