» » »

Guns N Roses, Sweet Child O Mines Bass tabs (ver.2)

Artists:  A B C D E F G H I J K L M N O P Q R S T U V W X Y Z # 

Sweet Child O Mines Bass tabs (ver.2)

Guns N Roses Tabs
 Rating:
4/5 (4 votes)
Sweet Child O Mines lessons Tabs too difficult? Try these video lessons and learn fast
                INTRO

    D                                     C                                G 
G|-----11-11--12--14--16--14--12-11----|----12r------10--9-----10r--9----|--
D|-12-------------------------------12-|-10r------10--------10--------10-|12r
A|-------------------------------------|---------------------------------|--
E|-------------------------------------|---------------------------------|--


                         D
G----------------12--11-----|
D----12--11--12----------12-|
A-12------------------------|
E---------------------------|

VERSE
   D                          C                          G                
G---------------------------|--------------------------|--------------
D-------------------4-7-4---|------------------3-2-3-0-|--------------
A--5--5-5--5-5--5-5---------|-3--3-3--3-3--3-3---------|--------------
E-------------------------5-|--------------------------|-3--3-3--3-3-0

                D
G-------------|-------------------------|
D-3-4-5-------|-----------5-4----7r--5--|
A-------2-3-4-|-5--5-5--5-----5---------|
E-------------|-------------------------|

CHORUS

    A5          B5            C5   
G|--------------------------|-------------------------|
D|--------------------------|-----------5-4----7r--5-*|
A|-0----0---0-2-3---3---0---|-5--5-5--5-----5--------*|
E|--------------------------|-------------------------|

    A5          B5            C5
G|--------------------------|------------5-6-7-7-7-7-7------|
D|--------------------------|-------------------------------|
A|-0----0---0-2-3---3---0---|-5--5-5--5---------------------|
E|--------------------------|-------------------------------|


Solo Bass Part 1

   Em           C           B          Am
G|------------|-----------|-----------|-----------|
D|------------|-----------|-----------|-----------|
A|-7--7r----7-|-3--3r----3|-----------|-----------|  REPEAT 4X
E|------------|-----------|-7--7r----7|-5--5r----5|

The 4th time through pick the last 5 rapidly until the fast scale of the solo
is done.

Solo Bass Part 2
   E5           G5          A5          C5  D5  C5     
G|------------|-----------|-----------|-------------|
D|------------|-----------|-----------|-------------|
A|------------|-----------|-----------|-------------|  REPEAT 4X
E|-0----0-----|-3----3----|-5----5----|-8r--10--8---|

Solo Ascend.
   E5           G5          A5        
G|------------|-----------|---------|------------------|
D|------------|-----------|---------|------------------|
A|------------|-----------|---------|------------------| 
E|-0----0-----|-3----3----|-5----5--|--10-10-8-5-5-3-0-|



Order of song.

Intro x1
verse x3
Chorus x1
verse x3
Chorus x2
verse x2
Chorus x2
Solo Part 1 x1
Solo Part 2 x2
Solo Ascend x1 

THAT'S THE WHOLE SONG ITS THE BEST TAB YOU WILL FIND!!!
 
BY CARLOS VALDEZ!!!!
            
Submit corrections

comments powered by Disqus
↑ Back to top | Guns N Roses Bass for Sweet Child O Mines. Lyrics for acoustic guitar and electric guitar. Tablatures and chords are parodies/interpretations of the original songs. You may use it for private study, scholarship, research or language learning purposes only