>
 >
Sweet Child O' Mine

Sweet Child O' Mine Guitar Tabs

Guns N Roses - Sweet Child O' Mine chords, tabs, tablatures, lyrics

Guitar lessons | Add/correct | Request | Top 50 tabs Artists:  A B C D E F G H I J K L M N O P Q R S T U V W X Y Z 0-9

Sweet Child O' Mine Guitar Tabs – Guns N Roses

CD, Sheet music, Poster

Do you like Sweet Child O' Mine? Share with your friends now
ChordsTabsTabs v2Tabs v3
*( View comments at the bottom of the page) 
                  (From: "Appetite for Destruction") 
                            GUNS & ROSES 
  
 INTRO *( Guitar detuned 1/2 down ) 
  
  ..........twice.............   ............twice............ 
 e---------------15-----14-----|---------------15------14--------\ 
 B----15-----------------------|----15---------------------------| 
 G--------14--12-----14----14--|--------14--12-----14-----14-----| 
 D--12-------------------------|--14-----------------------------| 
 A-----------------------------|---------------------------------| 
 E-----------------------------|---------------------------------/ 
  
  ..........twice.............   ............twice............ 
 e---------------15-----14-----|---------------15------14--------\ 
 B-----15----------------------|----15---------------------------| 
 G--12-----14--12----14----14--|--------14--12-----14-----14-----| 
 D-----------------------------|--12-----------------------------| 
 A-----------------------------|---------------------------------| 
 E-----------------------------|---------------------------------/ 
  
                                        * End Intro ............... 
 e--12-------------12----14----|--15-----14------12--------------|-14----\B----------15-----------------|------------------------15-------|-15----|G------14------14----14----14-|------14-----14-----14------14---|-14----|D-----------------------------|---------------------------------|-------|A-----------------------------|---------------------------------|-------|E-----------------------------|---------------------------------|-------/>  
                         WORDS AND MUSIC BY: 
                         W. Axel Rose, Slash, 
                         Izzy Stradin', Duff McKagan 
                         and Steve Adler. 
  
          (D) 
         She's got  smile___ that it seems to me___ 
                 (C) 
         re_minds___me of child - hood mem-o-ries,___ 
                 (G)                                       (D) 
         Where ev__'ry - thing__was as the bright__blue sky.__ 
         (D) 
         Now and then__When I see her face_______ 
             (C) 
         she takes me a-way___ to that spe-cial place,____ 
                  (G) 
         and if I started____ too___ long, 
                                         (D) 
         I'll pro-'ly break down and cry._______ 
         (A5)     (B5)      (C5)                         (D) 
         Whoa,    Whoa,___  Whoa.___ sweet child o' mine.____ 
         (A5)              (B5)(C5)                   (D) 
         Whoa,    oh,__oh,  oh,____sweet child  o' mine._____ 
  
         Guitar Fill Intro for part 1 and 2...........                    e------------------------------------------------------sl-----\ 
 B---10---8--7-----10--8--7----10---8------10---8-----10-\-8---| 
 G-9-----------------------------------9------------9----------| 
 D-------------------------------------------------------------| 
 A-------------------------------------------------------------| 
 E-------------------------------------------------------------/ 
  
         ........PART( 1 )............ 
  
                         full 
 e-full--------full-10--10^--(10)---------------\ 
 B-10-^-(10)8--10-^--------------full-----------| 
 G--------------------------------9-^-----------| 
 D----------------------------------------------| 
 A----------------------------------------------| 
 E----------------------------------------------/ 
  
         (A5)                (B5) (C5)                   (D) 
         Oh,   oh,___oh,    oh,____sweet child___o' mine._____ 
         (A5)       (B5) (C5)                    (D5) 
         Ooh,________________sweet love o' mine.____________ 
  
         (D) 
         She's got  eyes______of the bluest  skies,_________ 
                (C) 
         as___if  they thought___of rain.______ 
               (G) 
         I hate___to look in-to those eyes__________ 
                                    (D) 
         and - see  an_____ounce of pain.________ 
         (D) 
         Her hair remin-ds me of a warm____safe place______ 
               (C) 
         where___as a chil-d I___'d hide,_____ 
                 (G) 
         And___pray  for the thunder____and the rain_________ 
                                         (D) 
         to quie_____tly pass_____ me  by._________ 
  
  
  
    *(Go back to fill intro..then...jump to this part) 
  
         ...........PART ( 2 )................ 
  
 e---sl----half-------half/hold---10--------------------\ 
 B-10-\-8--7-^-(7)----7-^------------(7)-----10----8--7-| 
 G------------------7-----------------------------------| 
 D------------------------------------------------------| 
 A------------------------------------------------------| 
 E------------------------------------------------------/ 
  
                                 sl         sl 
 e----------------sl-full-10----10-\-8-------/12--------\ 
 B-10---8----7-----/10-^--------------------------------| 
 G------------------------------------------------------| 
 D------------------------------------------------------| 
 A------------------------------------------------------| 
 E------------------------------------------------------/ 
  
            sl           sl      half            vibrato 
 e--12---12-\-10---10-(10)\-8---7-^--(7)-----------------\ 
 B-----------------------------------------8-------------| 
 G---------------------------------------------7-~~~~~~~-| 
 D-------------------------------------------------------| 
 A-------------------------------------------------------| 
 E-------------------------------------------------------/ 
  
                 .........End of part (2).......... & fill.... 
                               full 
 e---full----P-----full--10---10-^--(10)-full/hold---17----(17)\ 
 B-10-^--(10)>8---10-^-------------------17-^---(17)-------(17)| 
 G-------------------------------------------------------------| 
 D-------------------------------------------------------------| 
 A-------------------------------------------------------------| 
 E-------------------------------------------------------------/ 
  
         * Guitar Solo. . . . . . . . . 
  
  
         Where do we go?_____ Where do we go_____now? 
         Where do we go?_____ Where do we go?______ 
         Where do we go____now?_____ Where do we go?______ 
         Where do we go?_____  CHILD ! 
         Where do we go____now? Where do we go______now, 
         Now?_________________Where do  we go?__________ 


This is the second time I send this Tablure I hope you 
find it useful.  This is an easy version of the original. 
I'm including the lirics with with chord names and some 
of the fills which I find neet to now.  Listen to the tape 
for accuracy..........ENJOY!!!!!





Comments


Popular Guns N Roses tabs & chords
Ain It Fun Bass Tabs
Dont U Cry Chords
Street Of Dreams 2 Chords
Double Talkin' Jive 2 Tabs
If The World Tabs
Jumping Jack Flash Tabs
Look At Your Game, Girl 1 Tabs
Word Up 1 Tabs
Yesterdays Tabs
Heartbreak Hotel Ukulele


Song lyrics



↑ Back to top | Tablatures and chords are parodies/interpretations of the original songs. You may use it for private study, scholarship, research or language learning purposes only
© 2014 AZChords.com Contact us | Privacy policy | DMCA | Add/correct tabs | Request tabs | Top 50 tabs