» » »

Sweet Child Of Mine Accurate Tabs (ver.1)

Artists:  A B C D E F G H I J K L M N O P Q R S T U V W X Y Z # 

Sweet Child Of Mine Accurate Tabs (ver.1)

Guns N Roses
Rating:
0/5 (0 votes)

Hard to play? Try these video lessons and learn fast.
                (Intro)
Artist = Guns N roses
Song = Sweet child of mine



this is the intro, the entire song should be in Eb, but this is the
lazy way of doing the intro...

Riff 1
E|--------------14--13-
B|----14---------------
G|-------13-11----13--- x2
D|-11------------------
A|---------------------
E|---------------------

Riff 2
E|--------------14--13-
B|----14---------------
G|-------13-11----13--- x2
D|-13------------------
A|---------------------
E|---------------------

Riff 3
E|--------------14--13-
B|----14---------------
G|-11----13-11----13--- x2
D|---------------------
A|---------------------
E|---------------------



just alternate all the riffs, there ya go!
            
Hard to play? Try these video lessons and learn fast. | Correct




comments powered by Disqus
↑ Back to top | Tablatures and chords are parodies/interpretations of the original songs. You may use it for private study, scholarship, research or language learning purposes only