>
 >
Sweet Child Of Mine 2

Sweet Child Of Mine 2 Guitar Tabs

Guns N Roses - Sweet Child Of Mine 2 chords, tabs, tablatures, lyrics

Guitar lessons | Add/correct | Request | Top 50 tabs Artists:  A B C D E F G H I J K L M N O P Q R S T U V W X Y Z 0-9

Sweet Child Of Mine 2 Guitar Tabs – Guns N Roses

CD, Sheet music, Poster

Do you like Sweet Child Of Mine 2? Share with your friends now
TabsTabs v2Tabs v3
Tune down half step

Intro:

     D				 C
e:|--------------15----14-----|--------------15----14-----|
B:|-----15----------14--------|-----15----------14--------|
G:|:-------14-12-------------:|:-------14-12-------------:|
D:|--12-----------------------|--14-----------------------|
A:|---------------------------|---------------------------|
E:|---------------------------|---------------------------|

     G                           D
e:|--------------15----14-----|--------------15----14-----|
B:|-----15----------14--------|-----15----------14--------|
G:|:-12----14-12-------------:|:-------14-12-------------:|
D:|---------------------------|--12-----------------------|
A:|---------------------------|---------------------------|
E:|---------------------------|---------------------------|


Chorus:

     A                           C
e:|---------------------------|--------------12----10-----|
B:|--14-14-------15----14-----|--13-13--------------------|
G:|--------14-------14----14--|--------12-10----12----12--|
D:|-----------14--------------|---------------------------|
A:|---------------------------|---------------------------|
E:|---------------------------|---------------------------|


     D                           D
e:|--------------15----14-----|--------------15---14-----|
B:|-----15--------------------|-----15-------------------|
G:|--------14-12----14----14--|--------14-12---14----14--|
D:|--12-----------------------|--12----------------------|
A:|---------------------------|--------------------------|
E:|---------------------------|--------------------------|


     A                           C
e:|---------------------------|--------------12----10-----|
B:|--14-14-------15----14-----|--13-13--------------------|
G:|--------14-------14----14--|--------12-10----12----12--|
D:|-----------14--------------|---------------------------|
A:|---------------------------|---------------------------|
E:|---------------------------|---------------------------|


     D                           D
e:|---------------------------|---------------------------|
B:|--------15-----------------|---------------------------|
G:|--12s14--------------------|---------------------------|
D:|---------------------------|---------------------------|
A:|---------------------------|---------------------------|
E:|---------------------------|---------------------------|

                    *Sweet child o' mine solo *
                    *    Guns n' Roses        *  

|-17^--hold----15--14--h15p14-----------15--14--h15p14-----------12--14-|
|-----------------------------17-----------------------17-16------------|
|-----------------------------------------------------------------------|
|-----------------------------------------------------------------------| 
|-----------------------------------------------------------------------|
|-----------------------------------------------------------------------|

|-----------------------------------------------------------------------|
|--15^--12----------------------------------------13-12-------h13p12\10-|
|----------14^--12--11h12----------------11-12-14-----------------------|
|-----------------------------14-----14---------------------------------| 
|-----------------------------------------------------------------------|
|-----------------------------------------------------------------------|

|---------------------------------------------15^-----------------------|
|--13^-----13-----12--12-(12)-------12^----------------7^^--------------|
|-----------------------------------------14-----------------9--9-------|
|-----------------------------------------------------------------------| 
|-----------------------------------------------------------------------|
|-----------------------------------------------------------------------|

|-----------------------------------------------------------------------|
|-----7^----------------------------------------------------------------|
|----------9--9-----8^----8/11---------11^---9-----------------9--------|
|-----------------------------------------------9^---7---9--------------| 
|-----------------------------------------------------------------------|
|-----------------------------------------------------------------------|

|-----------------------------------------------------------------------|
|--------7h8--p7---------------------------------------------7^---7-10^-|
|----------------------9------8^-----8------/11-----9^--8-9-----9-------|
|-----------------------------------------------------------------------|
|-----------------------------------------------------------------------| 
|-----------------------------------------------------------------------|

|-7-8p7-11p7-8-11-12/14-11-12--14/15-12-14-15p14-12----14p11-12h14p12---|
|---------------------------------------------------15----------------15|
|-----------------------------------------------------------------------|
|-----------------------------------------------------------------------| 
|-----------------------------------------------------------------------|
|-----------------------------------------------------------------------|
          w/wah wah
|-17--------------------------------------------------------------------|
|----15^---15^---15^---15^---15^-p12-----15^----15^--------15^-p12------|
|------------------------------------14----------------------------14---|
|-----------------------------------------------------------------------| 
|-----------------------------------------------------------------------|
|-----------------------------------------------------------------------|

|----------------------------------15-----------------------------------|
|--17^---17^--------17^----17^----------17^---------17^-p15--15h17------|
|-------------------17^-------------------------------------------------|
|-----------------------------------------------------------------------| 
|-----------------------------------------------------------------------|
|-----------------------------------------------------------------------|

|-----------12----------------------------------------------------------|
|-15^------------15---12------------------------------------------------|
|---------------------------14^-p12-14---12-14----12--14^----12--14--12-|
|-----------------------------------------------------------------------| 
|-----------------------------------------------------------------------|
|-----------------------------------------------------------------------|

|----15-------------15-----15-----15------------------------------------|
|----15-------15----15-----15-------15----------------------------------|
|-14^--14--12-14^-----14^----14^------14^-p12----14p12--x-x----12^------|
|---------------------------------------------14--------x-x-------------| 
|-----------------------------------------------------------------------|
|-----------------------------------------------------------------------|

|-----------------------------------------------------------------------|
|-----------------------------------------------------------------------|
|-----------------12h14p12----12^--------------------12h14p12-----12-12-|
|-14p12-14----x-x----------14--------14p12-14----x-x----------14--------| 
|-----------------------------------------------------------------------|
|-----------------------------------------------------------------------|

|----------------------------------------------12-12-------15-15p12--15-|
|-------------------12-12-------15-15p12-------------15p12--------------|
|-------14-14p12-14-------14p12-----------------------------------------|
|-14p12-----------------------------------------------------------------| 
|-----------------------------------------------------------------------|
|-----------------------------------------------------------------------|

|-14----12h15p12---------12-----------12-----------12-----------12------|
|----15----------15--15^----15p12--------15p12-15^----15p12--------15p12|
|----------------------------------14^-----------------------14^--------|
|-----------------------------------------------------------------------| 
|-----------------------------------------------------------------------|
|-----------------------------------------------------------------------|

|------12-----------12-----------12--------------12-------15^-----------|
|--15^----15p12--------15p12-15^----15p12-----12----15p12---------------|
|---------------14^-----------------------14^---------------------------|
|-----------------------------------------------------------------------| 
|-----------------------------------------------------------------------|
|-----------------------------------------------------------------------|

|--------------------15------12h15p12----12------12---------------------|
|-------------------------------------15-----15^-----15p12--------------|
|-----------------------------------------------------------14^-p12-14^-|
|-----------------------------------------------------------------------| 
|-----------------------------------------------------------------------|
|-----------------------------------------------------------------------|

|---------------------------------------------------|
|-------15------------------------------------------|
|----------14^-p12-14^----14p12--------------12-----|
|----------------------14-------14------------------| 
|---------------------------------------------------|
|---------------------------------------------------|





Comments


Popular Guns N Roses tabs & chords
Sweet Child Omine Bass Tabs
Estranged Chords
Heartbreak Hotel 1 Chords
Knocking On Heaven's Door Chords
November Rain 1 Chords
Sweet Child O' Mine Chords
Better Drum Tabs
Noevember Rain Tabs
Sweet Child Of Mine Accurate Intro Tabs
The Godfather Theme 1 Tabs


Song lyrics



↑ Back to top | Tablatures and chords are parodies/interpretations of the original songs. You may use it for private study, scholarship, research or language learning purposes only
© 2014 AZChords.com Contact us | Privacy policy | DMCA | Add/correct tabs | Request tabs | Top 50 tabs