>
 >
Since I Dont Have You 4

Since I Dont Have You 4 Guitar Tabs

Guns N Roses - Since I Dont Have You 4 chords, tabs, tablatures, lyrics

Guitar lessons | Add/correct | Request | Top 50 tabs Artists:  A B C D E F G H I J K L M N O P Q R S T U V W X Y Z 0-9

Since I Dont Have You 4 Guitar Tabs – Guns N Roses

CD, Sheet music, Poster

Do you like Since I Dont Have You 4? Share with your friends now
Tabs
-------------------------------------------------------------------------------
                                   SINCE I DON'T HAVE YOU - Guns N' Roses
-------------------------------------------------------------------------------

Tuning: Half-Step Down : Eb,Ab,Db,Gb,Bb,eb.

INTRO RIFF:

e|---------------------------------------------------------------------------|
B|------b13-------------------------------------brb13------------------------|
G|-----------pb14-12-14h15p14\12------------------------pb14-12-14h15p14\12--|
D|--12----------------------------13--12----12-------------------------------|
A|---------------------------------------------------------------------------|
E|---------------------------------------------------------------------------|

e|-------------brb14-14--12h14p12--------------------------------------------|
B|---------------------------------h15---------------------------------------|
G|---------------------------------------14--12--14h15p14\12-----------------|
D|--13--12-----------------------------------------------------15--13--------|
A|---------------------------------------------------------------------------|
E|---------------------------------------------------------------------------|

e|---------------------------------------------------------------------------|
B|---------------------------------------------------------------------------|
G|-------------------14------------------------------------------------------|
D|--14/16\14--14/16------16\14brb--------12--14\12-----------\---------------|
A|-----------------------------------14--------------------------------------|
E|---------------------------------------------------------------------------|


G           Cm         D
I don't have plans and schemes,
    G          Cm          D
And I don't have hopes and dreams.
G          Cm
I don't have anything,
Am            D
Since I don't have you.
    G          Cm     D
And I don't have fond desires,
    G          Cm      D
and I don't have happy hours.
G          Cm
I don't have anything,
Am                 D
Since I don't have you.
D                D
Happiness, and I guess,
Am            G
I never will again.
Am
When you walked out on me,
G
In walked ol' misery,
Am                      D
And he's been here since then.


(Yeah, we're f*cked!)


G, Cm, D  x2 = you can play the INTRO here or improvise on a 
G, Cm, Am, D = solo.


G          Cm        D
I don't have love to share,
    G           Cm       D
And I don't have one who cares.
G          Cm
I don't have anything,
Am                 D
Since I don't have you.

OUTRO:

G   Em  Am  D
You You You Woohoohooho
G   Em  Am  D
You You You Woohoohooho

OUTRO GUITAR RIFF:

e|---------------------------------------------------------------------------|
B|---------------------------------------------------------------------------|
G|---------------------------------------------------------------------------|
D|-------------5\2--2--------------------------------------------------------|
A|---------2------------------5--5-------------------------------------------|
E|--3--3---------------5--5--------------------------------------------------|

On the last one you don't play the last 3 notes.

NOTE:

For the verse Slash plays Hendrix style chords and regular chords.


************************************

| /   slide up
| \   slide down
| h   hammer-on
| p   pull-off
| ~   vibrato
| +   harmonic
| x   Mute note
| b   Bend
| pb  Pre-bend
| br  Bend release
| pbr Pre-bend release
| brb Bend release bend

************************************





Comments


Popular Guns N Roses tabs & chords
Bad Apples 2 Bass Tabs
Get In The Ring Drum Tabs
Ain't It Fun 2 Tabs
Back Off Bitch 2 Tabs
Down On The Farm Tabs
It's So Easy Tabs
Knockin On Heavens Door 5 Tabs
Move To The City Live Tabs
Sorry Tabs
Dust N Bones Ukulele


Song lyrics



↑ Back to top | Tablatures and chords are parodies/interpretations of the original songs. You may use it for private study, scholarship, research or language learning purposes only
© 2014 AZChords.com Contact us | Privacy policy | DMCA | Add/correct tabs | Request tabs | Top 50 tabs