» » »

Guns N Roses, Since I Don Have You Bass tabs (ver.1)

Artists:  A B C D E F G H I J K L M N O P Q R S T U V W X Y Z # 

Since I Don Have You Bass tabs (ver.1)

Guns N Roses Tabs
Rating:
0/5 (0 votes)
Since I Don	 Have You lessons Tabs too difficult? Try these video lessons and learn fast
                Intro:
G|----------------------------------------------------|
D|----------------------------------------------------|
A|------------2-2-------------2-4-1------44-22-11-----|
E|-2-2-0-0-4-4---4-2-2-0-0-2-2-----4-44-4--------44-2-|

G|---------------------------------------------------------------------------|
D|---------------------------------------------------------------------------|
A|-----1-2-2-4-4----------1-2-2-4-4-2-----------1-2-22-2--------44-22-11-----|
E|-2-22---------4-2-22-2-4------------4-2-22-2-4--------44444444--------44-2-|

G|------------------------------------------------------|
D|------------------------------------------------------|
A|-----------------------------------------44-22-11-----|
E|-4444444422222222444444442222222244444444--------44-2-|

Outro:
G|-----------------------------------|
D|-----------------------------------|
A|------------22-22-----------22-22--|
E|-2-2-0-0-4-4-----2-2-0-0-4-4-----2-|
            
Submit corrections

comments powered by Disqus
↑ Back to top | Guns N Roses Bass for Since I Don Have You. Lyrics for acoustic guitar and electric guitar. Tablatures and chords are parodies/interpretations of the original songs. You may use it for private study, scholarship, research or language learning purposes only