» » »

Guns N Roses, Rocket Queen Tabs (ver.2)

Artists:  A B C D E F G H I J K L M N O P Q R S T U V W X Y Z # 

Rocket Queen Tabs (ver.2)

Guns N Roses Tabs
 Rating:
4/5 (4 votes)
Rocket Queen lessons Tabs too difficult? Try these video lessons and learn fast
1
                This is a great song by guns n roses so I thought I would share it with you


Intro:
E--------------------------------------------------------------------------------------------------------------------------
B---------------------------------------------------------4/6---6-------9--------8\4-4\6--------------------------------
G---11--11-----------11--11----------4\2-4\2-4\2—2/4---4-------7--------6\2-2\4--------------------------------
D---11--11-----------11--11--------------------------------------------------------------------------------------------
A----9---9------------9----9---------------------------------------------------------------------------------------------
E--------------------------------------------------------------------------------------------------------------------------

E--------------------------------------------------------------------------------------------------------------------------
B--------------------------------------------------------------------------------------------------------------------------
G---11---11--------11---11-----------4hb-4hb-4hb-4hb-4hb-4hb-r-p2--------------------------------------------
D---11---11--------11---11---------------------------------------------------2-3—4/6-6--7-----6\2-2/4--4\2-2/1-
A---9-----9---------9----9-----------------------------------------------------------------------------------------------
E--------------------------------------------------------------------------------------------------------------------------

E---------------------------------
B---------------------------------
G--------------------------------
D--1----------0-----------------
A--------------------------------
E----------------------10/-------

Main riff
E------------------------------------------------------------
B------------------------------------------------------------
G------------------------------------------------------------
D------------------------------------------------------------
A---------0h1-----------------0h1-0h1--------------------
E---0--2--------2--0--0-2-2--------------------------------

 Verse riff 
E--------------------------------------------------------------------------------------------------------------------------
B--------------------------------------------------------------------------------------------------------------------------
G---------------4hb--r-b-rp2-2----------------------4b-r-p2------------2---------------------------------------------
D----------------------------------4-4--------------------------------4---------------------------------------------------
A--------------------------------------------------------------------------------------------------------------------------
E--------------------------------------------------------------------------------------------------------------------------

If I say I don’t need anyone, I can say these things to you

E--------------------------------------------------------------------------------------------------------------------------
B--------------------------------------------------------------------------------------------------------------------------
G------------------------------------------------------------4qb----------------------------------------------------------
D--------------4hb------4hb-r-p2-2---------------4hb----------4---2-2-----------------------------------------------
A---------------------------------------4-2---3h4------------------------------------------------------------------------
E--------------------------------------------------------------------------------------------------------------------------

Cause I can turn on anyone just like I turned on you

E--------------------------------------------------------------------------------------------------------------------------
B------------ 4-----------------------6hb-----------------------------------6qb-----------------------------------------
G-----2--3-- 4----------------6hb---------6-r-----4-*-*-4-4--*-6-6hb-------6--------------------------------------
D-4----------4------------------------------------------------------------------------------------------------------------
A--------------------------------------------------------------------------------------------------------------------------
E--------------------------------------------------------------------------------------------------------------------------

I’ve got a tongue like a ra-z-or ,     a sweet switch blade knife

E--------------------------4-----------------------------------------------------------------------------------------------
B---- 4--6---6-*-*--4b----4----------5--5-5--5--5--5--5-5-5--------------------------------------------------------
G--4-4--6---6-*-*-------------6-6---4--4-4--4--4--4--4-4-4----*-*-4--2-------------------------------------------
D--------------------------------------------------------------------------4--2------------------------------------------
A--------------------------------------------------------------------------2--0-------------------------------------------
E--------------------------------------------------------------------------------------------------------------------------

And I can do you favours then you’ll do what-ev-er I like…..
            
Submit corrections

comments powered by Disqus
↑ Back to top | Guns N Roses Tabs for Rocket Queen. Lyrics for acoustic guitar and electric guitar. 1 Tablatures and chords are parodies/interpretations of the original songs. You may use it for private study, scholarship, research or language learning purposes only