» » »

Rocket Queen Tabs (ver.1)

Artists:  A B C D E F G H I J K L M N O P Q R S T U V W X Y Z # 

Rocket Queen Tabs (ver.1)

Guns N Roses
Rating:
0/5 (0 votes)

Hard to play? Try these video lessons and learn fast.
                PROPS GO TO: Francisco Suárez Esser

Tune all string in a bemol tone, I mean, all strings must be tunned 1/2 tune lower than natural tone (guns always play this way).

I am very sorry ´cause this is my first tab and it´s 3am here in Caracas, but this tab will lead you in the main street of this song. From here you have to practice and figure out the complements that I can´t trancript to this sheet... Sorry I don´t know too much about making tabs.


Intro:

E--------------------------------------------------------
B--------------------------------------------------------
G------11----9----11-------------------------------------
D------11----9----11-------------------------------------
A------9-----7----9-----------------0h1--------0h1p0h1--(3 times)
E------9-----7----9-----------0--2-------0--2------------

Riff 1

E----------------------------------|
B----------------------------------|
G----------------------------------|
D----------------------------------|
A-------0h1-------0h1p0h1----------|
E--0--2------0--2------------------|

Riff 2

E-------------------------------------------------
B-------------------------------------------------
G----------4s2--------------4----6----------------
D-----4----4s2----2----4----4----6----------------
A-----4----2s0----2----4----2----4----------------
E-----2----2s0----0----2----2----4----------------


Chorus: 

 Here I am and you are a rocket queen o yeah.....

E----------------------------0-----------------------------
B----------------------------0-----------------------------
G----------------------------0--------2---4----------------
D----7----6----4---------2---2--------2---4----2---4-------
A----7----6----4---------2------------0---2----2---4-------
E----5----4----2---------0------------0---2----0---2-------

You are a bit obscene...

E---------------------------------------------------------------
B---------------------------------------------------------------
G---------------------------------------------------------------
D----4----2-----------------------------------------------------
A------------4----2----0------------0---------------------------
E--------------------------4----2--------4---2---0----1---s12s1-



Riff 3 (this riff begins in F#m)

E----------------------------------------------------------|
B----------------------------------------------------------|
G----------------9----4----6---------9---------------------|
D----------------9----4----6---------9----7----9-----------|
A----------------7----2----4---------7----7----9-----------|
E----------------7----2----4---------7----5----7-----------|

I see you standing, standing on your own....

In this part one guitar keeps playing the second riff
while the other one goes this way: 

E-----0--0----0-----0--0------0--0--0--0--------0---------------------------0----
B-----5----4h5----5------4h5--------5--------5--------5--4-----5--5--4--7---5----
G---------------6-------------------------6--------4--------6--------------------
D--------------------------------------------------------------------------------
A--------------------------------------------------------------------------------
E--------------------------------------------------------------------------------


Lead Guitar Solo:

E------------------------------------------------------------------------------
B------------------------------------------------------------------------------         G--13--11------11--11h13----------13--11-----11h13--11h13--11------------------
D----------14------------14--11~----------14-----------------13h14--13--11-----
A--------------------------------------------------------------------------14--
E------------------------------------------------------------------------------

E----------------------------------------------------------12--11---------------------
B--------------------14--12~-----------12h14-12~------------------14--12--------------
G--13--13--13--11------------13--11--------------13--11------------------14--13--11---
D-----------------14----------------14------------------14--------------------------14
A-------------------------------------------------------------------------------------
E-------------------------------------------------------------------------------------

E--16--16--14--12--14s16--12------16--14--12--14>16--14h16--11h12-11------------
B-----------------------------14~-------------------------------------14--12----
G-------------------------------------------------------------------------------
D-------------------------------------------------------------------------------
A-------------------------------------------------------------------------------
E-------------------------------------------------------------------------------

E--16--16--14h16--14--12--------16--14--12----------16--14--12----------11s12~~~
B------------------------14--12-------------14--12-------------14--12s9---------
G-------------------------------------------------------------------------------
D-------------------------------------------------------------------------------
A-------------------------------------------------------------------------------
E-------------------------------------------------------------------------------



End Riff:

Em  Ebm  C#m
Em  C#m  B
Em  Ebm  C#m B  A  G#  Em

The Live Era version is finished by Slash in this way: (following his guitar solo while the second guitar plays the end riff)


E----14h16--16--12-12-12-12-11-11-9-11s19-19-19-19-17-16-16-14-12~~~
B-------------------------------------------------------------------
G-------------------------------------------------------------------
D-------------------------------------------------------------------
A-------------------------------------------------------------------
E-------------------------------------------------------------------

E--7h9--9-9-9p--7----4>5-4---3>44--2--0--|
B-------------------------------------------------|
G-------------------------------------------------|
D-------------------------------------------------|
A-------------------------------------------------|
E-------------------------------------------------|



Intro

Riff 1

Riff 2
     F#m   
If I say I don´t need anyone
     A                              Em
I can say these things to you ´cause
                          F#m
I can turn on anyone just like I´ve turn on you
           B 
I´ve got a tongue like a razor, a sweet switchblade knife
C#m
And I can do you favors but then you´ll do whatever I like




Chorus
F#m                                Em 
Here I am, and you are a Rocket Queen
         A                         B            Em F#m
I might be a little young but honey I ain´t naive
      F#m                          Em  
Here I am, and you are a rocket queen, oh yeah
          A                  B                  Em F#m
I might be too much but honey you are a bit obscene.



Riff 2

I´ve seen everything imaginable pass before these eyes
I´ve had everything that´s tangible, honey you´d be surprised
I´m a sexual innuendo in this burned out paradise
If you turn me on to anything you better turn me all the night


Chorus

Riff 3

I see you standing, standing on your own
It´s such a lonely place for you, for you to be
If you need a shoulder or if you need a friend
I´ll be here standing until the bitter end

´Cause no one needs the sorrow, no one needs the pain
I hate to see you walking out there, out in the rain
So don´t chastise me or think I, I mean you harm
Of those that take you, leave you strung out much too far
baby yeah


Guitar solo

End Riff

Don´t ever leave me, say you´ll always be there
All I ever wanted was for you to know that I care.
            
Hard to play? Try these video lessons and learn fast. | Correct




comments powered by Disqus
↑ Back to top | Tablatures and chords are parodies/interpretations of the original songs. You may use it for private study, scholarship, research or language learning purposes only