>
 >
Reckless Life

Reckless Life Bass Tabs

Guns N Roses - Reckless Life chords, tabs, tablatures, lyrics

Guitar lessons | Add/correct | Request | Top 50 tabs Artists:  A B C D E F G H I J K L M N O P Q R S T U V W X Y Z 0-9

Reckless Life Bass Tabs – Guns N Roses

CD, Sheet music, Poster

Do you like Reckless Life? Share with your friends now
Bass TabsBass Tabs v2TabsTabs v2
#------------------------------------------------------------------------------##

                            RECKLESS LIFE (Bassline)
                          As recorded by Guns N' Roses
                        (From the 1988 Album G N' R LIES)


Gtr I (Eb Ab Db Gb) - 'Duff McKagan'

 Intro
 4/4
|-------------------------------|----------------------|
|-------------------------------|----------------------|
|-3p0-0----0-0-0-3p0-0----0-0-0-|-x-5--5-5-5-5-3--3----|
|-------3--------------3--------|----------------------|


|-------------------------------|----------------------|
|-------------------------------|----------------------|
|-3p0-0----0-0-0-3p0-0----0-0-0-|-x------------5--5----|
|-------3--------------3--------|---3--3-3-3-3---------|


|-------------------------------|----------------------|
|-------------------------------|----------------------|
|-3p0-0----0-0-0-3p0-0----0-0-0-|-x-5--5-5-5-5-3--3----|
|-------3--------------3--------|----------------------|


|-------------------------------|------------------|
|-------------------------------|------------------|
|-3p0-0----0-0-0-3p0-0----0-0-0-|-x-----------5----|
|-------3--------------3--------|---3--3-3-3-------|


 Verse
|---------------------------------|---------------------------------|
|---------------------------------|---------------------------------|
|-0-0-0-0-0-0-0-0-0-0-0-0-0-0-0-0-|-5-5-5-5-5-5-5-5-3-3-3-3-3-3-3-3-|
|---------------------------------|---------------------------------|


|---------------------------------|---------------------------------|
|---------------------------------|---------------------------------|
|-0-0-0-0-0-0-0-0-0-0-0-0-0-0-0-0-|-----------------5-5-5-5-5-5-5-5-|
|---------------------------------|-3-3-3-3-3-3-3-3-----------------|


|---------------------------------|---------------------------------|
|---------------------------------|---------------------------------|
|-0-0-0-0-0-0-0-0-0-0-0-0-0-0-0-0-|-5-5-5-5-5-5-5-5-3-3-3-3-3-3-3-3-|
|---------------------------------|---------------------------------|


|---------------------------------|----------------------------|
|---------------------------------|----------------------------|
|-0-0-0-0-0-0-0-0-0-0-0-0-0-0-0-0-|-----------------5----5--3--|
|---------------------------------|-3-3-3-3-3-3-3-3------------|


 Pre-Chorus
|------------------------------|-------------------------------|
|------------------------------|-------------------------------|
|-2-2-2-2-2-2-2-2-2-2-2-2-0--2-|-3-3-3-3-3-3-3-3-3-3-3-3-5--3--|
|------------------------------|-------------------------------|


|------------------------------|----------------------|
|------------------------------|----------------------|
|-2-2-2-2-2-2-2-2-2-2-2-2-0--2-|-3-3-3-3-3-3-3-3-5----|
|------------------------------|----------------------|


   Chorus
||-----------------------------------||----------------------------------|
||o---------------------------------o||----------------------------------|
||o-5-5-5-5-5-5-5-5-5-5-5-5-5-5-5-5-o||-5-5-5-5-5-5-5-5-5-5-5-5-5-5-5-5--|
||-----------------------------------||----------------------------------|


|--------------------------------|----------------------------------|
|--------------------------------|----------------------------------|
|-5-5-3-3-5-5-3-3-5-5-3-3--------|-5-5-5-5-5-5-5-5-5-5-5-5-5-5-5-5--|
|-------------------------5\-----|----------------------------------|


|---------------------------------|---------------------------------|
|---------------------------------|---------------------------------|
|-5-5-3-3-5-5-3-3-5-5-3-3-5-5-3-3-|-5-5-3-3-5-5-3-3-5-5-3-3-5-5-3-3-|
|---------------------------------|---------------------------------|

                   
|-----------------|
|-----------------|
|-3-----3-----3---|
|----3-----3----3-|


 Guitar Solo
|---------------------------|----------------------------|
|---------------------------|----------------------------|
|-2-2-2--2-2-2-2---2--2-2-2-|--5--5-5-5-5-0---0---0-0-0--|
|---------------------------|----------------------------|

|-------------------------|--------------------------|
|-------------------------|--------------------------|
|-2-2-2--2-2-2-2---2--2-0-|-------------0---0--0-0-0-|
|-------------------------|--3--3-3-3-3--------------|


|---------------------------|---------------------------|
|---------------------------|---------------------------|
|-2-2-2--2-2-2-2---2--2-2-2-|--5--5-5-5-5-0---0--0-0-0--|
|---------------------------|---------------------------|


|-------------------------|-----------------------------|
|-------------------------|-----------------------------|
|-2-2-2--2-2-2-2---2--2-0-|-------------0-0-1-1-2-2-3-3-|
|-------------------------|--3--3-3-3-3-----------------|


|---------------------------|---------------------------|
|---------------------------|---------------------------|
|-4-4-4--4-4-4-4---4--4-4-4-|-------------2--2--2-2-2---|
|---------------------------|--0--0-0-0-0---------------|


|-------------------------|--------------------------|
|-------------------------|--------------------------|
|-4-4-4--4-4-4-4---4--4-2-|--0--0-0-0-0-2---2--2-2-2-|
|-------------------------|--------------------------|


|---------------------------|---------------------------|
|---------------------------|---------------------------|
|-4-4-4--4-4-4-4---4--4-4-4-|------------2---2--2-2-2---|
|---------------------------|-0--0-0-0-0----------------|


|---------------------------|---------------------------------|
|---------------------------|---------------------------------|
|-4-4-4--4-4-4-4---4--4-4-4-|-4-4-4-3-3-3-2-2-2-1-1-1-0-0-----|
|---------------------------|-----------------------------5\--|


Tablature Legend
----------------
 h   - hammer-on
 p   - pull-off
 b   - bend
 pb  - pre-bend
 r   - bend release (if no number after the r, then release immediately)
 /\  - slide into or out of (from/to "nowhere")
 s   - legato slide
 S   - shift slide
  - natural harmonic
[n]  - artificial harmonic
n(n) - tapped harmonic
 ~   - vibrato
 tr  - trill
 T   - tap
 TP  - trem. picking
 PM  - palm muting
\n/  - tremolo bar dip; n = amount to dip
 \n  - tremolo bar down
 n/  - tremolo bar up
/n\  - tremolo bar inverted dip
 =   - hold bend; also acts as connecting device for hammers/pulls
 <>  - volume swell (louder/softer)
 x   - on rhythm slash represents muted slash
 o   - on rhythm slash represents single note slash

Misc Legend
-----------
 |  - bar
||  - double bar
||o - repeat start
o|| - repeat end
*|  - double bar (ending)
 :  - bar (freetime)
 $  - Segno
 &  - Coda
Tempo markers -  = BPM(8/16=s8/s16), where s8 = swing 8ths, s16 = swing 16ths


***************************************************************************************
***************************************************************************************





Comments


Popular Guns N Roses tabs & chords
Knockin On Heavens Door 2 Bass Tabs
Nightrain Bass Tabs
One In A Million Chords
14 Years Drum Tabs
Chinese Democracy 5 Tabs
Garden Of Eden Tabs
Nightrain Intro Tabs
Patience 7 Tabs
Patience 9 Tabs
Shotgun Blues Tabs


Song lyrics



↑ Back to top | Tablatures and chords are parodies/interpretations of the original songs. You may use it for private study, scholarship, research or language learning purposes only
© 2014 AZChords.com Contact us | Privacy policy | DMCA | Add/correct tabs | Request tabs | Top 50 tabs