>
 >
Prostitute

Prostitute Guitar Tabs

Guns N Roses - Prostitute chords, tabs, tablatures, lyrics

Guitar lessons | Add/correct | Request | Top 50 tabs Artists:  A B C D E F G H I J K L M N O P Q R S T U V W X Y Z 0-9

Prostitute Guitar Tabs – Guns N Roses

CD, Sheet music, Poster

Do you like Prostitute? Share with your friends now
ChordsTabsUkulele
Band: Guns N' Roses
Song : Prostitute

Tuning : Eb Ab Db Gb Bb eb

^ = upward picking
b = bend
r = release bend
~~ = vibrato
x = mute the string / scrape


solos are only guidelines to what should be played.. this aint perfect
but hopefully you can play along the song now

seems like forever and a dayyyyyyyyyyyyy
 guitar 1
 continue this pattern as long as it's needed
|-15----13----15----13----15----13----15b~~~~~~------------------------------|
|----13----13----13----13----13----13----------------------------------------|
|----------------------------------------------------------------------------|
|----------------------------------------------------------------------------|
|----------------------------------------------------------------------------|
|----------------------------------------------------------------------------|
|guitar 2
|----------------------------------------------------------------------------|
|----------------------------------------------------------------------------|
|--10------------------------------------------------------------------------|
|--10------------------------------------------------------------------------|
|--8-------------------------------------------------------------------------|
|----------------------------------------------------------------------------|
|
|--1-------------------------------------------------------------------------|
|--1-------------------------------------------------------------------------|
|--2-------------------------------------------------------------------------|
|--3-------------------------------------------------------------------------|
|--3-------------------------------------------------------------------------|
|--1-------------------------------------------------------------------------|



"verse"
 Lead Guitar
|-r15~~------~13\--<<<<>>>>>>>-------------------------------|
|---------------------------------------------13--13/15\13------------------|
|---------------------------------------------------------------------------|
|--------------------------------------------------------------7---------3--|
|--------------------------------------------------------------5---------1--|
|---------------------------------------------------------------------------|

|----------------------3h5--1/3--3h5-----------------------------------------|
|---8-8---6~~---5~~-----------------------5h6p5--5h6p5\3~--------------------|
|---------------------------------------------------------------------/12~~~~|
|----------------------------------------------------------------------------|
|----------------------------------------------------------------------------|
|----------------------------------------------------------------------------|

Rythm

|----------------------------------------------------------------------------|
|----------------------------------------------------------------------------|
|----10----------------------------------------------------------------------|
|----10---------------10---------7-------------------------------------------|
|----8----------------7----------5-------------------------------------------|
|----------------------------------------------------------------------------|
|
|----------------------------------------------------------------------------|
|----------------------------------------------------------------------------|
|----------------------------------------------------------------------------|
|----3----------------9----------7-------------------------------------------|
|----3----------------7----------5-------------------------------------------|
|----1----------------0------------------------------------------------------|

I wont ask....

|----------------------------------------------------------------------------|
|----------------------------------------------------------------------------|
|--3----------------------5--------------------------------------------------|
|--3----------------------5--------------------------------------------------|
|--1----------------------3--------------------------------------------------|
|----------------------------------------------------------------------------|
|
|--6-------6--------------8---------8----------------------------------------|
|--6-------6--------------8---------8----------------------------------------|
|----------------------------------------------------------------------------|
|--8----------------------10-------------------------------------------------|
|--8----------------------10-------------------------------------------------|
|--6----------------------8--------------------------------------------------|


oooooh I saw the damage in you
|----------------------------------------------------------------------------|
|----------------------------------------------------------------------------|
|--7----7--7--7-------------5----5--5--5---------------------3---------------|
|--7----7--7--7-------------5----5--5--5---------------------3---------------|
|--5----5--5--5-------------3----3--3--3---------------------1---------------|
|----------------------------------------------------------------------------|
|
|-------10-10-10-----------------8--8--8--------------------------6----------|
|-------10-10-10-----------------8--8--8--------------------------6----------|
|----------------------------------------------------------------------------|
|--12-----------------------10-------------------------------8---------------|
|--12-----------------------10-------------------------------8---------------|
|--10-----------------------8--------------------------------6---------------|


my unfortunate one the envy of youth
|-------444------------------------------------------------------------------|
|-------444------------------------------------------------------------------|
|----------------------------------------------------------------------------|
|---6--------------------------5---------------------------------------------|
|---6--------------------------5---------------------------------------------|
|---4--------------------------3---------------------------------------------|

2 times
|-----------------------------------------------------------------------------|
|-----------------------------------------------------------------------------|
|--5------7-8---------3----2----3--------8------------------------------------|
|--5------7-8---------3----2----3--------8------------------------------------|
|--3------5-6---------1----0----1--------6------------------------------------|
|-----------------------------------------------------------------------------|

new verse lead guitar ( rythm and pretty much the same as in previous verse)
|----------------------------------------------------------------------------|
|-------8-----------------5--5-5---5/7--7~-----------------------------------|
|-----10-10-------------4----4-4----------------7----5--5h7~-----------5/7~~-|
|---10-----10---------2-----------------------7---7--------------------------|
|--8---------8------------------------------5--------------------------------|
|----------------------------------------------------------------------------|

|------------8h10-8----------------------------------------------------------|
|------------8h10-8---6~-6~---------7----------------------------------------|
|--10-10--------------------------9---9-9~---------7-7/9-7---------7-5-----3-|
|--10-10--------------10-10-----9---9--9---------7---7/9-7--5h7~--7--5-5~--3-|
|--8--8---------------8--8----7----------------5-----------------5---------1-|
|----------------------------------------------------------------------------|

|--------------------3h5---1/3 h5--------------------------------------------|
|--6--6/8~--6-5~~~~----------------5h6p5---5h6p5\3~~----/10--10h13/15~~--~---|
|----------------------------------------------------------------------------|
|----------------------------------------------------------------------------|
|----------------------------------------------------------------------------|
|----------------------------------------------------------------------------|

|----------------------------------------------------------------------------|
|--15p13-/17~~----------------------------6b-r6--4p3-3~~---------------------|
|----------------------------------------------------------------------------|
|-------------------------~/5-5--3h5-5~~-------------------------------------|
|----------------------------------------------------------------------------|
|----------------------------------------------------------------------------|


I told you when I found....
 2 times
|-----------------------------------------------------------------------------|
|-----------------------------------------------------------------------------|
|-3------3/5------------------------------------------------------------------|
|-3------3/5---6----5----3----------------------------------------------------|
|-1------1/3---6----5----3----------------------------------------------------|
|--------------4----3----1----------------------------------------------------|

2nd guitar
|-----------------------------------------------------------------------------|
|-------x-------x-----------x------x------------------------------------------|
|-/3~---x--3~---x--3/5--/5--x--1~--x---1-1~-------x-------x-------------------|
|-------x-------x-----------x------x----------5~--x-5~--5-x--3h5p3------------|
|------------------------------------------------------------------6~-5~------|
|-----------------------------------------------------------------------------|


solo
 guitar 1
|-----------------------------------------------------------------------------|
|-----------------------------------------------------------------------------|
|--5------5------5--------3---3-------5-----5------5------8----------------10-|
|--5------5------5--------3---3-------5-----5------5------8----------------10-|
|--3------3------3--------1---1-------3-----3------3------6----------------8--|
|-----------------------------------------------------------------------------|

 guitar 2
|-----------------15------------------15--------------15------------------------------|
|--18b~~~~~-18b-------18-15-18b~~~~------18-15-----15----18p15----18p15---------------|
|----------------------------------------------17b-------------17-------17p15-15-17~~-|
|-------------------------------------------------------------------------------------|
|-------------------------------------------------------------------------------------|
|-------------------------------------------------------------------------------------|

|---------------------------------------------------18-15-18-15-------18-15-18-15-------|
|-------------------------------------------15-18---------------18-15-------------18-15-|
|-------------------------15-17-------15-17---------------------------------------------|
|-15----15-17-------15-17-------15-17---------------------------------------------------|
|-15-17-------15-17---------------------------------------------------------------------|
|---------------------------------------------------------------------------------------|

|--18-17-15----20-18-15-----------------------------------------------------------------|
|-----------18----------18 just play something in G minor pentatonic--end on 18~~~~-----|
|---------------------------------------------------------------------------------------|
|---------------------------------------------------------------------------------------|
|---------------------------------------------------------------------------------------|
|---------------------------------------------------------------------------------------|





Comments


Popular Guns N Roses tabs & chords
Its So Easy 2 Bass Tabs
This I Love Bass Tabs
Catcher In The Rye Chords
Don't Cry Chords
Raw Power Chords
Black Leather Tabs
Chinese Democracy 2 Tabs
Nightrain 1 Tabs
You Ain't The First Tabs
Nice Boys Ukulele


Song lyrics



↑ Back to top | Tablatures and chords are parodies/interpretations of the original songs. You may use it for private study, scholarship, research or language learning purposes only
© 2014 AZChords.com Contact us | Privacy policy | DMCA | Add/correct tabs | Request tabs | Top 50 tabs