» » »

Patience Tabs (ver.5)

Artists:  A B C D E F G H I J K L M N O P Q R S T U V W X Y Z # 

Patience Tabs (ver.5)

Guns N Roses
Rating:
0/5 (0 votes)

Hard to play? Try these video lessons and learn fast.
                (Intro)
*------------------------9-----------------6-7-8-9-------
*------7-----------9/11------11\9--7---9-----------9--7--
*---6----------------------------------------------------
*--------------------------------------------------------
*--------------------------------------------------------
*--------------------------------------------------------




*-------------6/7/8---------9--------7--------6-------6\4
*---9-----9----------------------------------------------
*------8------6/7/8----10-------8---------6-------6---6\4
*--------------------------------------------------------
*--------------------------------------------------------
*--------------------------------------------------------




this is my first tab so be nice
            
Hard to play? Try these video lessons and learn fast. | Correct




comments powered by Disqus
↑ Back to top | Tablatures and chords are parodies/interpretations of the original songs. You may use it for private study, scholarship, research or language learning purposes only