» » »

Patience Tabs (ver.14)

Artists:  A B C D E F G H I J K L M N O P Q R S T U V W X Y Z # 

Patience Tabs (ver.14)

Guns N Roses
Rating:
0/5 (0 votes)

Hard to play? Try these video lessons and learn fast.
                
.here"s n  verion of patience
all tabs are included especially outro.when playing the Intro and Ending, finger the chords
 given below and not   just press the notes you need to play.   
   try yur own other ideas specially in outro leads first part.

by-RIWAJ RAJ
N Feel Free to correct this tab.
Guns N Roses
GNRlies



Intro:
C G A D    C G A D
C G C Em   C G D D

C
Shed a tear cause I'm missing you
    G
I'm still allright to smile
A                            D
Girl I think about you every day now


C
Was a time when I wasn't sure
        G
But you set my mind at ease
A                               D
There is no doubt, you're in my heart now


C          G
Sad woman take it slow
        C               Em
It will work itself out fine
C              G               D
All we need is just a little patience


C          G
Sad sugar make it slow and
   C              Em
It comes together fine
C              G               D
All we need is just a little patience


I Sit here on the stairs
Cause I'd rather be alone
If I can't have you right now
I'll wait dear

Sometimes I get so tense
But I can't speed up the time
You know love, there's one more thing
To consider


Sad woman take it slow
And things will be just fine
You and I just use a little patience

Sad sugar take the time
Cause the lights are shining bright
You and I got what it takes to make it


D
We don't fake it
D
Ahh and never break it
D
Cause I can't take it



Solo


D        G
A little patience
D     G
Mhh Yeah


D
I've been walking the streets tonight
G
Just trying to get it right
D
It's hard to see with so many around
G
No one  like to be stuck in the ground
                 D
And the streets don't change but maybe the name
            G
I ain't got time for the game
        D
Cause I need you
          G
Yeah Yeah cause I need you
      D
Uh I need you
      G
Woh I need you
       D
Uhh this time


--X-------------
--X-------------
--X-------------
--X-------------
--X-------------
--X-------------
p=pull off
()=its origin is HARMONICS, but here the strings that can be palyed or not 
   {sound better if played}

intro:
  C            G          A         D
E-0-0-0-0-0-0--3----------0---------2------------------------------
B-1-1-3p1-0-1--3--3p1-0-1-2-3p1-0-1-3-3p1-0-1----------------------
G-0-0-0p0-0-0--0----------2---------2------------------------------
D-2------------0----------2---------0------------------------------
A-3------------2----------0---------0------------------------------
E(0)-----------3---------(0)-------(0)-----------------------------

p=pull off
b=bend
~=half bend
MAIN LEAD STARTS:

E|| -----------10b-------8-7-8-7-10-------------------------- ||
B|| -----8b-10b---10b-8p-----------10b-8b-10-10-10s8--------- ||
G|| --7h9-----------------------------------9--------7s9----- ||
D|| --------------------------------------------------------- ||
A|| --------------------------------------------------------- ||
E|| --------------------------------------------------------- ||

E|| ---8------|---6------------4----------3------- ||
B|| ----------|----------------------------------- ||
G|| -9--------|-7----------5----------4------4b~---||
D|| ----------|----------------------------------- ||
A|| ----------|----------------------------------- ||
E|| ----------|----------------------------------- ||
XXXXXXXX
C*G*C*Em
XXXXXXXX
C*G*D



pluggin part:



    Shed a tear...
----------------|----------------|----------------|----------------|
------1---1-1-1-|3p1---0---1-----|----------------|----------------|
----0-----0-0-0-|0-----------0---|----------------|--------0-----0-|
--2-------2-2-2-|2---------------|----------------|----0-----0-2-0-|
3---------3-3-3-|3---3---------3-|2-------2-0-----|----2-0---------|
----------------|----------------|----------------|3---------------|
                |                |                |                |
----------------|----------------|----------------|----------------|
------1---------|3-1---1---------|----------------|----------------|
----0-----------|----0---0-------|------0---------|------0---------|
--2-------------|----------2-----|----0-----------|----0---0-----0-|
3---------------|------------3-0-|2---------0-----|--2-------2-----|
----------------|----------------|--------------3-|3-----------3---|



--------5-------|----------------|----------------|----------------|
------2---------|3p2---0---2-----|----------------|----------------|
----2-----------|----------------|----------------|--2---2-4-2-----|
2---------------|----2-----------|0-------------0s|4-----------4---|
0---------------|----------0-3-4-|----------------|--------------0-|
----------------|----------------|----------------|----------------|
                |                |                |                |
------5---------|5-----5---------|------0-2-------|3-2-----0-2-----|
----5---5-------|5-------5-------|----3-----------|----------------|
--6-------------|7---------------|----------------|----------------|
7-----------7---|----------------|0-------------0-|----------------|
----------------|----------0-3-4-|----------------|----------------|
----------------|----------------|----------------|----------------|


    Was a time...
----------------|----------------|----------------|----------------|
------1---1-1-1-|3p1---0---1-----|----------------|----------------|
----0-----0-0-0-|0-----------0---|----------------|--------0-----0-|
--2-------2-2-2-|2---------------|----------------|----0-----0-2-0-|
3---------3-3-3-|3---3---------3-|2-------2-0-----|----2-0---------|
----------------|----------------|----------------|3---------------|
                |                |                |                |
----------------|----------------|----------------|----------------|
------1---------|3-1---1---------|----------------|----------------|
----0-----------|----0---0-------|------0---------|------0---------|
--2-------------|----------2-----|----0-----------|----0---0-----0-|
3---------------|------------3-0-|2---------0-----|--2-------2-----|
----------------|----------------|--------------3-|3-----------3---|




--------5-------|----------------|------0-2-------|3-2---0-0-2-----|
------2---------|3p2---0---2-----|----3-----3-----|------3-3-3---0-|
----2-----------|----------------|------------2---|--------2-2-2---|
2---------------|----2-----------|0-------------0-|----------------|
0---------------|----------0-3-4-|----------------|----------------|
----------------|----------------|----------------|----------------|
                |                |                |                |
------5---------|5-----5---------|----2---2-------|----------------|
----5---5-------|5-------5-------|------3---3-----|3-----3---3-3-0-|
--6-------------|7---------------|------------2-0-|----------2-2-0-|
7-----------7---|----------------|0---------------|----------0-0-0-|
----------------|----------0-3-4-|----------------|----------------|
----------------|----------------|----------------|----------------|


chorus=C*G*C*Em*C*G*D,(Dsus4,D,Dsus,D)x2


verse 2 (same as above)
except




A                                             DSUS4
0----0--0--0-------------------------------------3--3-0--2----
2-2---2--2--2----------------------------2--2-----3----3------
2--2---2--2-------------------------------2--2-----2----------
2---2----------------------------------2----2--20-------------
0-------------------------------------------------------------
0-------------------------------------------------------------
If I can't have you right nowI'll wait dear



~=1/2 bend
b=bend
/=slide
r=RELEASE
h=hammer

SOLO:



-----------------8--7-|-8--------8/--10--8-------|------------------8--7--|
----------------------|-------------------10/-12-|---10-8----8------------|
----------------------|--------------------------|------------------------|
----------------------|--------------------------|------------------------|
----------------------|--------------------------|------------------------|
----------------------|--------------------------|------------------------|

-8-------8/-10b-10/-12b|------------------8--7---|-8--------8/-10--8-------| 
-----------------------|-------------------------|------------------10/-12-|
-----------------------|-------------------------|-------------------------|
-----------------------|-------------------------|-------------------------|
-----------------------|-------------------------|-------------------------|
-----------------------|-------------------------|-------------------------|

----------------10/-12-|-----10---10------12/-14-|----12----10------10-----|
---10---8--8--8--------|-------------------------|-------------------------|
-----------------------|-------------------------|-------------------------|
-----------------------|-------------------------|-------------------------|
-----------------------|-------------------------|-------------------------|
-----------------------|-------------------------|-------------------------|

------------------------|------------------------|-------------------------|
-------5--8-------------|------------------------|---------5--8------------|
---7-----------7---5--7-|-----4---7--------------|---7b---------7--9-------|
------------------------|--7b-------7~-----5-7b--|-------------------------|
------------------------|------------------------|-------------------------|
------------------------|------------------------|-------------------------|

----------------------|--------------------------|-----------------------------|
-8h10-10~r8------8-10-|10b-10b-10b-8b-10b-8--10--|-8h-10r-8h-10r-8~-10/12-10-10|
------------9---------|--------------------------|-----------------------------|
----------------------|--------------------------|-----------------------------|
----------------------|--------------------------|-----------------------------|
----------------------|--------------------------|-----------------------------|



outro:
chords:
D
G

~=HALF BEND
b=bend
r=release
h=hammer
()=harmonics
/=slide

LEAD DURING OUTRO:

-------10-14---14-14b/12b-12-12/10-10b-8-7-6-5-4-3b-3-3-3-3-3-3-3--(2)------------
(1)/11-10-15---14-14b/12b-12-12/10-10b-----------------------------(3)------------
-------11-14---14-14b/12b-12-12/10-10b-9-8-7-6-5-4b-4-4-4-4-4-4-4-----------------
----------------------------------------------------------------------------------
----------------------------------------------------------------------------------
----------------------------------------------------------------------------------
                                             Little patience uh huh ya
-----------------------------------------
----------10-----------------------------
(12)12~-12--12--9------------------------
--------------12-12----------------------
-----------------------------------------
-----------------------------------------
uh huh ya            need a little patience



--------------------------------------------------------
----------10--------------------------------------------
-9-11-12----12-11-12-12~12br11-11-11r9-9/7b-7/5b-5/4-4~-
--------------------------------------------------------
--------------------------------------------------------
--------------------------------------------------------
  ya......................ya..                 Just a little patience
           


--------------------------------------10b--
---------10----------------10r8-10/12------
-9-11-12----12-11-12~~---------------------
-------------------------------------------
-------------------------------------------
-------------------------------------------
ya..................       C'mon patience

after this the main vocal starts:

-------------------------------------------
-8h10-8b7-8-8~8--8r7-7-7b-7/5b-5/3b-3/2-2b-
-------------------------------------------
-------------------------------------------
-------------------------------------------
-------------------------------------------


--5-5-5-5-5-5~5b--5h75bh7b5--------------
-3-3-3-3-3-3-----------------------------
-----------------------------------------
-----------------------------------------
-----------------------------------------
-----------------------------------------

And the streets don't change but maybe the name


-----8--8---8--6---6---6---6---6~--4-4-4-4-4--3~--3b---
-------------------------------------------------------
--9---9---9--7--7---7---7---7-----5-5-5-5-5--4--4b-----
-------------------------------------------------------
-------------------------------------------------------
-------------------------------------------------------

Cause I need youYeah Yeah cause I need you Uh I need you Woh I need you
       
Uhh this time

-3~2---------2-
----3--------3-
-----2-------2-
------5-4-0--0-
-------------0
-------------0-
            
Hard to play? Try these video lessons and learn fast. | Correct




comments powered by Disqus
↑ Back to top | Tablatures and chords are parodies/interpretations of the original songs. You may use it for private study, scholarship, research or language learning purposes only