» » »

Guns N Roses, Patience Tabs (ver.7)

Artists:  A B C D E F G H I J K L M N O P Q R S T U V W X Y Z # 

Patience Tabs (ver.7)

Guns N Roses Tabs
 Rating:
4/5 (4 votes)
Patience lessons Tabs too difficult? Try these video lessons and learn fast
                This is how I play the song at my solo acoustic shows. When we do a full show, the other
guitarist plays the First and Third solos, because I don't know them, so they wont be
into the lyrics and skip that part.
**Tuned Half-Step Down**

**Note** When Strumming, Accents can make or break this song. It's important to listen
to the track to get it down.
Chords Used
C G A D D/F# Em (and variations of all these)

Intro
  C            G            A            D*
e-0---0-0-0-0--3---3-3-3-3--0---0-0-0-0--2---3-2-0-2-|
b-1---3-1-0-1--3---3-3-3-3--2---3-2-0-2--3---3-3-3-3-|
g-0---0-0-0-0--0---0-0-0-0--2---2-2-2-2--2---2-2-2-2-|
d-2---2-2-2-2--0---0-0-0-0--2---2-2-2-2--0---0-0-0-0-|
a-3---3-3-3-3--2---2-2-2-2--0---0-0-0-0--------------|
E--------------3---3-3-3-3---------------------------|

There is an asterisk by the D. This is because this is what I call the D Turnaround. He
uses it nearly every time he plays the D Chord. I'll continue putting the asterisk for that.

Play this once. Then get a strum going for behind the whistle and first solo. He plays
through these chords once more then goes into the chords for the chorus. Easy strum
Pattern once you get the hang of it. Follow a recording, its easy to Hear.

  C  G  C  Em C  G  D*
e-0--3--0--0--0--3--2-|
b-1--3--1--0--1--3--3-|
g-0--0--0--0--0--0--2-|
d-2--0--2--2--2--0--0-|
a-3--2--3--2--3--2----|
E----3-----0-----3----|

He Does this once Then does it again This time he "Stutter Strums" The D Chord. He hits
it four times very fast then does the turn around. He Stutters four times then goes back
to the verse.

  C  G  C  Em C  G  D*
e-0--3--0--0--0--3--2-|
b-1--3--1--0--1--3--3-|
g-0--0--0--0--0--0--2-|
d-2--0--2--2--2--0--0-|
a-3--2--3--2--3--2----|
E----3-----0-----3----|

Repeat Verse

Repeat Chorus

Solo
Part 1
e-8p7h8-8s10p8----------8p7h8-8s10-8-10s12-|
b-------------10s12p10s8-------------------|
g------------------------------------------|
d------------------------------------------|
a------------------------------------------|
E------------------------------------------|

e--8p7h8-8s10p8----------8-10s12-10-10-12s14-12-10-12-10-|
b--------------10s12p10s8--------------------------------|
g--------------------------------------------------------|
d--------------------------------------------------------|
a--------------------------------------------------------|
E--------------------------------------------------------|

Part 2

e-----------------------|
b---5-8-----------------|
g-7b---7b-5-7---4-8-----|
d-------------7b---7b-5-|
a-----------------------|
E-----------------------|

e-----------------------------------------------------------------|
b---5-8--------8-10-8-10-10b-8h10p8--8-10-10bb-8-8-10-10b-8h10p8--|
g-7b---7b-5-7s9----9---------------9b---------9-----------------9-|
d-----------------------------------------------------------------|
a-----------------------------------------------------------------|
E-----------------------------------------------------------------|

e-------------------|
b-8-10-10s12p10-10--|v
g-------------------|
d-------------------|
a-------------------|
E-------------------|

part 3
e------------------------------------|
b-3h5-3-------------7b-7-------------|
g-------4-2-----2--------4-2-----2---|
d-----------3-4---0----------3-4---0-|
a------------------------------------|
E------------------------------------|

e--------------0-2-|
b-7b-7-5-7-3---0-3-|
g------------2-0-2-|
d--------------0-0-|
a------------------|
E------------------|

Outro Verse Strum Chords. You can mute them for a few strums if you want. It seems to
put the GNR edge in if you do.

D/F#   G
e-2----3-|
b-3----3-|
g-2----0-|
d-0----0-|
a-0----2-|
E-2----3-|

Use these chords until the End.

Rock On,
Dzguitarguy
            
Submit corrections

comments powered by Disqus
↑ Back to top | Guns N Roses Tabs for Patience. Lyrics for acoustic guitar and electric guitar. Tablatures and chords are parodies/interpretations of the original songs. You may use it for private study, scholarship, research or language learning purposes only