» » »

Guns N Roses, Patience Tabs (ver.10)

Artists:  A B C D E F G H I J K L M N O P Q R S T U V W X Y Z # 

Patience Tabs (ver.10)

Guns N Roses Tabs
 Rating:
4/5 (4 votes)
Patience lessons Tabs too difficult? Try these video lessons and learn fast
1
                Solo
*----8p7--8-8/10--8----------------8p7--8-8/10---7-10/12-|
*-------------------10/12-10-8-8-------------------------|
*--------------------------------------------------------|
*--------------------------------------------------------|
*--------------------------------------------------------|
*--------------------------------------------------------|


*----8p7--8-8/10--8-----------------------------------------|
*--------------------10/12-10-8-8---------------------------|
*-----------------------------------------------------------|
*-----------------------------------------------------------|
*-----------------------------------------------------------|
*-----------------------------------------------------------|


*----10/12--10-10-12/14---12-10h12-10---------------------|
*--8------------------------------------------------------|
*---------------------------------------------------------|
*---------------------------------------------------------|
*---------------------------------------------------------|
*---------------------------------------------------------|

*---------------------------------------------------------|
*-------5-8-----------------------------------------------|
*---7b9-----7b9r7---5-7------4-7--------------------------|
*-----------------------7b9------7b9--5-------------------|
*---------------------------------------------------------|
*---------------------------------------------------------|

*---------------------------------------------------------|
*--------5-8--------------8-10b12r10p8--------------------|
*---7b9------7b9r7--5-7/9--------------9------------------|
*---------------------------------------------------------|
*---------------------------------------------------------|
*---------------------------------------------------------|

*---------------------------------------------------------|
*-8-10-10b12b10-8-10-8-10b12-8-10-8-10-8-10/12-10-10------|
*-------------------9------------9------------------------|
*---------------------------------------------------------|
*---------------------------------------------------------|
*---------------------------------------------------------|

*---------------------------------------------------------|
*---3h5-3-------------7b8-7-----------7b8-7---------------|
*---------4p2-----2---------4p2---------------------------|
*-------------3h4---0-----------3-4-0---------------------|
*---------------------------------------------------------|
*---------------------------------------------------------|

*--8p7-8-8/10-8--------------8p7-8-8/10-7-10/12-----------|
*---------------10/12-10-8-8------------------------------|
*---------------------------------------------------------|
*---------------------------------------------------------|
*---------------------------------------------------------|
*---------------------------------------------------------|

*-8p7-8-8/10-8--------------10/12-10-10-12/14-12-10h12-10-|
*-------------10/12-10-8-8-8------------------------------|
*---------------------------------------------------------|
*---------------------------------------------------------|
*---------------------------------------------------------|
*---------------------------------------------------------|
*---------------------------------------------------------|
*-----5-8-------------------------------------------------|
*-7b9----7b9r7-5---4-7---------5-8-----------8-10b12r10p8-|
*---------------7b9---7b9-5-7b9---7b9r7-5-7/9------------9|
*---------------------------------------------------------|
*---------------------------------------------------------|

*---------------------------------------------------------|
*-8-10-10b10-8-10-8-10b12-8-10-8-10-8-10/12-10-10---------|
*----------------9------------9---------------------------|
*---------------------------------------------------------|
*---------------------------------------------------------|
*---------------------------------------------------------|

*---------------------------------------------------------|
*-3h5-3------------7b8-7-----------7b8-7------------------|
*-------4p2----2---------4p2------------------------------|
*-----------3h4--0-----------3-4-0------------------------|
*---------------------------------------------------------|
*---------------------------------------------------------|
            
Submit corrections

comments powered by Disqus
↑ Back to top | Guns N Roses Tabs for Patience. Lyrics for acoustic guitar and electric guitar. 1 Tablatures and chords are parodies/interpretations of the original songs. You may use it for private study, scholarship, research or language learning purposes only