» » »

Patience Tabs (ver.9)

Artists:  A B C D E F G H I J K L M N O P Q R S T U V W X Y Z # 

Patience Tabs (ver.9)

Guns N Roses
Rating:
0/5 (0 votes)

Tabs too difficult? Try these video lessons and learn fast.
                
Key:
     / : slide
     ~ : vibrato
     p : pull off
    fb : full bend
    hb : half bend
     r : release bend
     h : hammer on
     = : let note ring

Gtr. : Eb-Ab-Db-Gb-Bb-eb
      
Slash's Pre Solo:            
Eb|----10=====-----|----14=====-----|
Ab|----------------|----------------|
Db|----------------|----------------|
Gb|----------------|----------------|
Bb|----------------|----------------|
eb|----------------|----------------|

Slash's Guitar solo:
Eb|------------8p7-|8~-----8/10-8---|------------8p7-|8~---------8/10-|10/12-------8p7-|
Ab|----------------|--------------10|p8--8h10--------|----------------|----------------|
Db|----------------|----------------|----------------|----------------|----------------|
Gb|----------------|----------------|----------------|----------------|----------------|
Bb|----------------|----------------|----------------|----------------|----------------|
eb|----------------|----------------|----------------|----------------|----------------|

Eb|-8~-------8-/10-|----------------|--/12-10-10-----|-12/14-12-12-10-|----------------|
Ab|----------------|-10/12-10-10/8-8|----------------|----------------|---5-8----------|
Db|----------------|----------------|----------------|----------------|7fb----7hb--5-7-|
Gb|----------------|----------------|----------------|----------------|----------------|
Bb|----------------|----------------|----------------|----------------|----------------|
eb|----------------|----------------|----------------|----------------|----------------|

Eb|----------------|----------------|----------------|----------------------------10---|
Ab|----------------|---5-8----------|--8-10br-8-8--10p8-10br-8h10p8--10brp8-8---10b---r|
Db|--------7-------|7fb----7hb-5-7/9|----------------|---------------------------------|
Gb|-7fb-r-7----5---|----------------|----------------|---------------------------------|
Bb|----------------|----------------|----------------|---------------------------------|
eb|----------------|----------------|----------------|---------------------------------|

Eb|----------------|----------------|----------------|----------------|----------------|
Ab|-8-10-10br-8-8--|-10/12-10-10----|--hold----------|-7/9-7----------|----------------|
Db|----------------|----------------|----------------|------------4p2-|-----2----------|
Gb|----------------|----------------|----------------|----------------|3h4-----0-------|
Bb|----------------|----------------|----------------|----------------|----------------|
eb|----------------|----------------|----------------|----------------|----------------|

Eb|----------------|----------------|----------------|----3p2--=======|===============-|
Ab|-7br--7---------|-------------7b-|-r7-------------|--3--===========|===============-|
Db|----9-------4p2-|-----2----------|--------4p2-----|2--=============|===============-|
Gb|----------------|3h4-----0-------|----------------|0--=============|===============-|
Bb|----------------|----------------|----------------|----------------|----------------|
eb|----------------|----------------|----------------|----------------|----------------|

Comment and rate!!!! *****
            
Tabs too difficult? Try these video lessons and learn fast.


comments powered by Disqus
↑ Back to top | Tablatures and chords are parodies/interpretations of the original songs. You may use it for private study, scholarship, research or language learning purposes only