>
 >
Paradise City Outro

Paradise City Outro Guitar Tabs

Guns N Roses - Paradise City Outro chords, tabs, tablatures, lyrics

Guitar lessons | Add/correct | Request | Top 50 tabs Artists:  A B C D E F G H I J K L M N O P Q R S T U V W X Y Z 0-9

Paradise City Outro Guitar Tabs – Guns N Roses

CD, Sheet music, Poster

Do you like Paradise City Outro? Share with your friends now
Tabs
This outro is fast and not for the faint harted, have a bit of patience 
and learn about four bars at a time, have fun
                       
E-------------------------------------------------------------------------------------|
B-------------------------------------------------------------------------------------|
G-------------------------------------3b----5~~~-----3-4-5~~~------3-4-5-3-5-3-5-3b---|
D---5~~~----3-4-5~~~---3-4-5-3-5-3-5--------------------------------------------------|
A-------------------------------------------------------------------------------------|
E-------------------------------------------------------------------------------------|

                    sl.                                    p.m----|     p.m--|            
E-----------------------------------------------------------------------------|
B-------------------/5---(5)---3-4-5-3-5-3b------------3----5-3------3b-------|
G---3~~~-1-2-3-0-3----------------------------5-3-5~~~---5------5-3------5-3--| x2
D-----------------------------------------------------------------------------|
A-----------------------------------------------------------------------------|
E-----------------------------------------------------------------------------   

                                        
E-----------------------------------------------------------------------------|                                                                                                                                                                                                                                                                                                                                                                
B---------------------------------------5^-----3---5^---3---5^--3--5~~~~~~----|
G----------3-----------------3----------5^-----3---5^---3---5^--3--5~~~~~~----|
D--5~~~~~~---5---5~~~~~~--3----5~~~~~~----------------------------------------|
A-----------------------------------------------------------------------------|
E-----------------------------------------------------------------------------|

E-----------------------------------------------------------------------------|                                                                                                                                                                                                                                                                                                                                                                
B---6------x--5--(5)-----3----(3b)-----------------3----------------3---(3)--|
G---5------x--5--(5)-----3----(3b)-----------------3----3--2--------3---(3)--|
D--------------------------------------5p3---5~~~----5--------5--3------------|
A-----------------------------------------------------------------------------|
E-----------------------------------------------------------------------------|

E----------------------------------------------------------------------------------------------------|                                                                                                                                                                                                                                                                                                                                                                
B-----------15b--15b-15b-15b-15b----15b-15-14-13--13-15-13h15p1311h13p11-(11)h13p1110-11p10--10h11-|
G--------12-------------------------------------15-------------------------------------------12------|
D---/14----------------------------------------------------------------------------------------------|
A----------------------------------------------------------------------------------------------------|
E----------------------------------------------------------------------------------------------------|

E------------10--15------15-----------15---15----15---15---15----------15--15----15--15-----18b-(18)|                                                                                                                                                                                                                                                                                                                                                                
B-10--1013b-------18b-----18p15--18b---18----18b---18--18b---18p15------18--18b-------18p15---------|
G---12--------------------------------------------------------------17b------------------------------|
D----------------------------------------------------------------------------------------------------|
A----------------------------------------------------------------------------------------------------|
E----------------------------------------------------------------------------------------------------|

E---3-----3-----3-----3---------|                                                                                                                                                                                                                                                                                                                                                                
B-----6p3---6p3---6p3---6p3-----|
G-------------------------------|
D-------------------------------|  x4
A-------------------------------|
E-------------------------------|

E-----6--5h6p5----------------------------------------------------------------------------|                                                                                                                                                                                                                                                                                                                                                                
B-68----------8p6-8--5h6h8--5h6h8--6p5--------3----3-------------------------------------|
G---------------------------------------7p5-5b---5b---5b--5-3h5p3-----3-------------------|
D-----------------------------------------------------------------3h5---5~~~~~~~~~~~~p3---|
A-----------------------------------------------------------------------------------------|
E-----------------------------------------------------------------------------------------|
                                                    p.m             p.m  
E-------------------|---------------------------------------------------|                                                                                                                                                                                                                                                                                                                                                                
B-------------------|---------------------------------------------------|
G-------------------|---------------------------------------------------|
D-5p3--------3------|---------------------------------------3---5-3-----|
A------5-3h5--/3-1--|------------------1---3^--1-3-1----3/5---5-----5-3-|
E------------------3|---1b---1-3~~~~~~---3-----------3x-----------------|

E---------------------------------------------------------------3-----3--------|                                                                                                                                                                                                                                                                                                                                                                
B--3--------------------3-----------------3--------------------3------3-3------|
G--3----------------3---3--------------3--3----------------3-5b----5b-----5b---|
D-----5p3h5~~~~~~--5-5-----5-5~~~~~~--5-5---------5~~~~~~-5-5------------------|
A------------------------------------------------------------------------------|
E------------------------------------------------------------------------------|

E---3------------3----------------3-----------------------3-----|                                                                                                                                                                                                                                                                                                                                                                
B--3--5^b-------3--5bbb----------3---5bbbbbbbb---5^b--------6b--|
G-----5^b----------5bbb--------------5bbbbbbbb---5^b------------|
D---------------------------------------------------------------|
A---------------------------------------------------------------|
E---------------------------------------------------------------|

E--3-------3-6p3-8^p6-8p6---10b-10-9-8-----8-9-10--------------------------|                                                                                                                                                                                                                                                                                                                                                                
B----6b--6------6----8---8p6-----------10b--------10^p8----10---8---10--9--|
G-------------------------------------------------------9-----9------------|
D--------------------------------------------------------------------------|  
A--------------------------------------------------------------------------|
E--------------------------------------------------------------------------|

E------------------10-----------------------------------------------------------------------|                                                                                                                                                                                                                                                                                                                                                                
B--8--10---8-10b------10---8~~~---10---8~~~--10---8~~~-10---8-10--8h10-11-10h11p10p8---10---|
G--------9---------------9-----------9----------9---------9--------------------------10--10-|
D-------------------------------------------------------------------------------------------|  
A-------------------------------------------------------------------------------------------|
E-------------------------------------------------------------------------------------------|

E---------------------------------------10h12----10h12h13--15p12h13/17--13h15--15h17----/18-15h17-15----15------15--|                                                                                                                                                                                                                                                                                                                                                                
B-8------10h11p10----10h11h13--10h11h13-------13-------------------------------------18--------------18----18b------|
G----/12----------12------------------------------------------------------------------------------------------------|
D-------------------------------------------------------------------------------------------------------------------|  
A-------------------------------------------------------------------------------------------------------------------|
E-------------------------------------------------------------------------------------------------------------------|


E-------------------------------------------x18b---------------------|--------------------12-13h15p13p12----13p12---|                                                                                                                                                                                                                                                                                                                                                                
B-18p15--18p15----15-18p15--15--15-----------17b---------17~~~~14---|-----------12h13h15----------------15---------|
G--------------18---------18--18--17^p15-----------------------------|--12h14h15------------------------------------|
D---------------------------------------17---------------------------|----------------------------------------------|  
A--------------------------------------------------------------------|----------------------------------------------|
E--------------------------------------------------------------------|----------------------------------------------|

E-------12---------------------------------------------------------------------------------------------------------------------|                                                                                                                                                                                                                                                                                                                                                                
B--15-13--15p13-12-15-13p12----14p13p12----15p14p13p12--------12p10-------10---------------------------------------------------|
G---------------------------15----------14--------------14p12-------12p10----12p10|9----10p9-------9---------------------------|
D------------------------------------------------------------------------------------12------12-10---12p10-9-12-10b----10b--10-|  
A-------------------------------------------------------------------------------------------------------------------13----13---|
E------------------------------------------------------------------------------------------------------------------------------|

        p.m---|         p.m---|
E-------------------------------------------------------------------------------------------------------------------------------------|                                                                                                                                                                                                                                                                                                                                                                
B--------------------------------------------------------------------------------------------------------15h16h17--------15h16h17-----|
G--------------------------------------------------------------------------------15h16h17--------15h16h17--------15h16h17-------------|
D--10--------------10------------10----0------------------------15h16h17-15h16h17--------15h16h17-------------------------------------|  
A---------------------------------------------15h16h17-15h16h17-----------------------------------------------------------------------|
E--------10-10-----------10-10--------------------------------------------------------------------------------------------------------|

                          heavy p.m----------------------------------------------| lighter p.m -------------------------         
E----------15-----------------------------------------------------------------------------------------------------------|                                                                                                                                                                                                                                                                                                                                                                
B-16h17h18----18b-------------------------------------------------------------------------------------------------------|
G-----------------------------------------------------------------------------------------------------------------------|
D----------------------------------------------------------------------------------------------3-4-5-3-4-5-3-4-5-3-4-5--|  
A--------------------15------------------------------------------------------------------------------------------------|
E----------------------------------3-1-2-3-1-2-3-1-2-3-1-2-3-1-2-3-1-2-3-1-2-3-1-2--------------------------------------|

 ------------------------------|
E------------------------------------------------------------------------------------------------|                                                                                                                                                                                                                                                                                                                                                                
B------------------------------------------------------------------------------------------------|
G---------------------------------3-------3b--(3)------------------------------------------------|
D-3-4-5-3-4-5-3-4-5-3-4-5-3-4-5-----5~~~~------------5^p3h5~~~--(5)bbbbb--------5--3--5---3--3b--|  
A---------------------------------------------------------------------------------------5--------|
E------------------------------------------------------------------------------------------------|

E----------------------------12--------------------------------------------------------------------------|                                                                                                                                                                                                                                                                                                                                                                
B-------------------------15----15-12--------------------------------------------------------------------|
G---------------------14b--------------14b-14--12----14----12~~~~---12-12--14p12---12--12~~~~--12-14-12--|
D-5~~~~~~~~~~~~~~~~-------------------------------14----14----------------------14-----------------------|  
A--------------------------------------------------------------------------------------------------------|
E--------------------------------------------------------------------------------------------------------|


E---------------------------------------------------------------------------------------------------------------|                                                                                                                                                                                                                                                                                                                                                                
B------12-15------------------------------13-14-15-----13-15-----13-15-----13-15-----13-15-----13-15p13-----13--|
G--14b-------14^--12----14----12-14-(14)b----------14b-------14b-------14b-------14b-------14b----------15b-----|
D--------------------14----14-----------------------------------------------------------------------------------|  
A---------------------------------------------------------------------------------------------------------------|
E---------------------------------------------------------------------------------------------------------------|

E--------------------------------------------------|                                                                                                                                                                                                                                                                                                                                                                
B--15p13----13-15p13----13-15p13----13-15-13---13--|
G--------15b---------15b---------15b--------15b----|  x4
D--------------------------------------------------|  
A--------------------------------------------------|
E--------------------------------------------------|

E---------------------------------------------------------------------|                                                                                                                                                                                                                                                                                                                                                                
B--15b-13h15p1312-13-12h13h12------12--------------------------------|
G------------------------------14p12--14^p12--14p12-------------------|
D-------------------------------------------14-----12h14-12b--(12)r---|  
A---------------------------------------------------------------------|
E---------------------------------------------------------------------|

E------------------------------------------------------------------------------------------------------------------|                                                                                                                                                                                                                                                                                                                                                                
B------------------------------------------------------------------------------------------------------------------|
G--5b--5^p3-5p3--5^p3-5-3b-3b--------------------------------------------------------------------------------------| 
D--------------5-----5-5--5--5-3------------------------------------3--(3)bbbbbbbbbbbbb-(3)----------------5------|  
A-------------------------------5-4-3-3^--1---------/5-(5)~~~~~~~~~----------------------------------------5------|
E--------------------------------------------3-1--2--------------------------------------------------------3------|


cheers hope you like, this one is definatly the money shot!!!!
enjoy!





Comments


Popular Guns N Roses tabs & chords
Ain't It Fun Bass Tabs
You Ain't The First Chords
Better Drum Tabs
Anything Goes Tabs
Nightrain 6 Tabs
November Rain 11 Tabs
November Rain Solos Tabs
Patience 7 Tabs
Street Of Dreams 3 Tabs
Raw Power Ukulele


Song lyrics



↑ Back to top | Tablatures and chords are parodies/interpretations of the original songs. You may use it for private study, scholarship, research or language learning purposes only
© 2014 AZChords.com Contact us | Privacy policy | DMCA | Add/correct tabs | Request tabs | Top 50 tabs