>
 >
Paradise City Live

Paradise City Live Guitar Tabs

Guns N Roses - Paradise City Live chords, tabs, tablatures, lyrics

Guitar lessons | Add/correct | Request | Top 50 tabs Artists:  A B C D E F G H I J K L M N O P Q R S T U V W X Y Z 0-9

Paradise City Live Guitar Tabs – Guns N Roses

CD, Sheet music, Poster

Do you like Paradise City Live? Share with your friends now
Tabs
Paradise City Live In Tokyo


Tuning: Drop down a half step

This is the way slash plays it in Tokyo 1991. Its all pretty much the same as the studio
except for the little into in the begining. The real song starts at the /. The solo is
and pretty ticky so take it slow and youll get it eventually.Very often during the song 
switches between the neck and bridge pickup so youll have to listen and just play
sounds right to you, its pretty obvious in most parts. ENoy!

For the intro use a clean setting or turn the volume on the guitar down to 1 or 2 that
take away the distortion.

D#||--3--3-3-3-3-3-3-3---------3-3-3-|--------------3-3-3-3-------3-3-3-|
A#||--1--1-0-1-1-0---1---------1-0-1-|--1---3-------0-1-0-1-1-1-1-0-1-0-|
F#||--0--0-0-0-0---0-0-------------0-|--0---2-----2-0-0-0-0-0-0-0-0-0-0-|
C#||-----------0-------0h2---2-------|----2-0-2-3-----------2-3-2-------|
G#||-----------2-----------3---------|----3-----------------3-3-3-------|
D#||---------------------------------|----------------------------------|

------3-----3-3-3---3-3-3-3-------|--3--3-3-3-3-3-3-3---------3-3-3-|
------------0-0-0-3-3-----0-3-----|--1--1-0-1-1-0---1---------1-0-1-|
------------1-0-0-0---0-0---------|--0--0-0-0-0---0-0-------------0-|
--0-2---2-3-----------0-------2---|-----------0-------0h2---2-------|
------3---------------------1h--2-|-----------2-----------3---------|
----------------------------------|---------------------------------|

--3---3---------3-----------------|--3--3-3-3-3-3-3-3---------3-3-3--||
--1-6---6h3---3-1-----------------|--1--1-0-1-1-0---1---------1-0-1--||
--0---------0-2-0-----3-----------|--0--0-0-0-0---0-0-------------0-*||
------------2-0---0h2---0h2-3-0h2-|-----------0-------0h2---2-------*||
----------------------------------|-----------2-----------3----------||
----------------------------------|----------------------------------||

--3----------------|/------------------|--3----3-----3-------3-------|
--0----------------|/------------------|--0------0------0------0---0-|
--0----------------|/------------------|--0--------0------0------0---|
-------------------|/------------------|--0--------------------------|
-------------------|/------------------|--2--------------------------|
-------------------|/------------------|--3--------------------------|

----------3-----3-------3-------|---------3---------------3-------|
--1---------1------1------1---1-|--1----1---1---1-1-----1---1---0-|
--0-----------0------0------0---|--0h2--------2---0-----------0---|
--0h2---2-----------------------|--0h3------------0h2-------------|
------3-------------------------|---------------------3-----------|
--------------------------------|---------------------------------|

-------3-----3---------------------|--3----3-----3-------3-------|
--0------0------0-----0----0-------|--0------0------0------0---0-|
--0--------0------0h2---0--------0-|--0--------0------0------0---|
--0--------------------------0h2---|--0--------------------------|
--2--------------------------------|--2--------------------------|
--3--------------------------------|--3--------------------------|

----------3-----3-------3-------|---------3---------------3-------|
--1---------1------1------1---1-|--1----1---1---1-1-----1---1---0-|
--0-----------0------0------0---|--0h2--------2---0-----------0---|
--0h2---2-----------------------|--0h3------------0h2-------------|
------3-------------------------|---------------------3-----------|
--------------------------------|---------------------------------|

-------3-----3---------------------|--3----3-----3-------3-------|
--0------0------0-----0----0-------|--0------0------0------0---0-|
--0--------0------0h2---0--------0-|--0--------0------0------0---|
--0--------------------------0h2---|--0--------------------------|
--2--------------------------------|--2--------------------------|
--3--------------------------------|--3--------------------------|

----------3-----3-------3-------|---------3---------------3-------|
--1---------1------1------1---1-|--1----1---1---1-1-----1---1---0-|
--0-----------0------0------0---|--0h2--------2---0-----------0---|
--0h2---2-----------------------|--0h3------------0h2-------------|
------3-------------------------|---------------------3-----------|
--------------------------------|---------------------------------|

-------3-----3---------------------|--3----3-----3-------3-------|
--0------0------0-----0----0-------|--0------0------0------0---0-|
--0--------0------0h2---0--------0-|--0--------0------0------0---|
--0--------------------------0h2---|--0--------------------------|
--2--------------------------------|--2--------------------------|
--3--------------------------------|--3--------------------------|

----------3-----3-------3-------|---------3---------------3-------|
--1---------1------1------1---1-|--1----1---1---1-1-----1---1---0-|
--0-----------0------0------0---|--0h2--------2---0-----------0---|
--0h2---2-----------------------|--0h3------------0h2-------------|
------3-------------------------|---------------------3-----------|
--------------------------------|---------------------------------|

Now turn on distortion or turn up the volume on the guitar all the way. (whichever way
chose in the begining)

----------------3------------------|---------------------|
------|------|--3------------------|--5------------------|
------|------|--0--------------x-x-|--5--------------x-x-|
------|------|--0--------------x-x-|--5--------------x-x-|
------|------|--x--------------x-x-|--3--------------x-x-|
------|------|--3------------------|---------------------|


          C5         G5                                          C5
-------------------------|--3------------------|--3------------------|
--10----------5----------|--3------------------|--3------------------|
--10------x-x-5----------|--0------------------|--0--------------x-x-|
--10------x-x-5------x-x-|--0--------------x-x-|--0--------------x-x-|
--8-------x-x-3------x-x-|--x--------------x-x-|--x--------------x-x-|
---------------------x-x-|--3--------------x-x-|--3------------------|


                 F5             C5         G5
---------------------|-------------------------|--3----------------|
--5------------------|--10----------5----------|--3----------------|
--5--------------x-x-|--10------x-x-5----------|--0----------------|
--5--------------x-x-|--10------x-x-5------x-x-|--0----------------|
--3--------------x-x-|--8-------x-x-3------x-x-|--x----------------|
---------------------|---------------------x-x-|--3----------------|

----------------------------------------|
----------------------15----------------|
--------12-12~-----------14b--14r-12----|
--12h14---------14-12----------------14-|
----------------------------------------|
----------------------------------------|

----------------------------------------|------------------------------|
----------------------15----------------|--13b---13b---13--------------|
--------12-12~-----------14b--14r-12----|--------------------14r-12----|
--12h14---------14-12----------------14-|---------------------------14-|
----------------------------------------|------------------------------|
----------------------------------------|------------------------------|

--------------------|----------------------------------------|
--------------------|----------------------15----------------|
--14~---------------|--------12-12~-----------14b--14r-12----|
--------------------|--12h14---------14-12----------------14-|
--------------------|----------------------------------------|
--------------------|----------------------------------------|

----------------------------------------|-------------15-----------------|
----------------------15----------------|--13b---13b-----13r-13----12h13-|
--------12-12~-----------14b--14r-12----|--------------------------------|
--12h14---------14-12----------------14-|--------------------------------|
----------------------------------------|--------------------------------|
----------------------------------------|--------------------------------|

--------------------|------------------------------|
--12~---------------|------------------------------|
--------------------|--------------------------3---|
--------------------|------------------------5-3---|
--------------------|--5~-3-4-5~-3-4-5-3-5-3-5-----|
--------------------|------------------------------|

------------------------------|------------------------------|
------------------------------|------------------------------|
------------------------5-3---|--------------------------3---|
------------------------5-3---|------------------------5-3---|
--5~-3-4-5~-3-4-5-3-5-3-------|--5~-3-4-5~-3-4-5-3-5-3-5-----|
------------------------------|------------------------------|

----------------------------|------------------------------|
----------------------------|------------------------------|
----------------------5-3---|--------------------------3b--|
----------------5--3--5-3---|--5--3-4-5-5-3-5----5-5-5-----|
--5~-3-4-5~-3-4-5--3--------|------------------5-----------|
----------------------------|------------------------------|

------------------------------|------------------------------|-------------|
------------------------------|------------------------------|-------------|
------------------------5-3b--|--------------------------3b--|-------------|
--5--3-4-5-5-3-5----5-5-------|--5--3-4-5-5-3-5----5-5-5-----|--5--3--5--3-|
------------------5-----------|------------------5-----------|-------------|
------------------------------|------------------------------|-------------|

-------------------|------------------------|------------------------------|
-------------------|------------------------|------------------------------|
--5r---------------|--5r--3-5r--3-----------|--------------------------3---|
-------------------|--------------5----5/---|------------------------5-3---|
-------------------|------------------------|--5~-3-4-5~-3-4-5-3-5-3-5-----|
-------------------|------------------------|------------------------------|

------------------------------|------------------------------|
------------------------------|------------------------------|
------------------------5-3---|--------------------------3---|
------------------------5-3---|------------------------5-3---|
--5~-3-4-5~-3-4-5-3-5-3-------|--5~-3-4-5~-3-4-5-3-5-3-5-----|
------------------------------|------------------------------|

----------------------------|------------------------------|
----------------------------|------------------------------|
----------------------5-3---|--------------------------3b--|
----------------5--3--5-3---|--5--3-4-5-5-3-5----5-5-5-----|
--5~-3-4-5~-3-4-5--3--------|------------------5-----------|
----------------------------|------------------------------|

------------------------------|------------------------------|---------------|
------------------------------|------------------------------|---------------|
------------------------5-3b--|--------------------------3b--|---------------|
--5--3-4-5-5-3-5----5-5-------|--5--3-4-5-5-3-5----5-5-5-----|--5--3--5--3---|
------------------5-----------|------------------5-----------|---------------|
------------------------------|------------------------------|---------------|


                                                              C5
-------------------|------------------------|--3------------------|
-------------------|------------------------|--3------------------|
--5r---------------|--5r--3-5r--3-----------|--0--------------x-x-|
-------------------|--------------5----5/---|--0--------------x-x-|
-------------------|------------------------|--x--------------x-x-|
-------------------|------------------------|--3------------------|


                 F5             C5         G5
---------------------|-------------------------|--3------------------|
--5------------------|--10----------5----------|--3------------------|
--5--------------x-x-|--10------x-x-5----------|--0------------------|
--5--------------x-x-|--10------x-x-5------x-x-|--0--------------x-x-|
--3--------------x-x-|--8-------x-x-3------x-x-|--x--------------x-x-|
---------------------|---------------------x-x-|--3--------------x-x-|


                 C5                    F5             C5         G5
--3------------------|---------------------|-------------------------|
--3------------------|--5------------------|--10----------5----------|
--0--------------x-x-|--5--------------x-x-|--10------x-x-5----------|
--0--------------x-x-|--5--------------x-x-|--10------x-x-5------x-x-|
--x--------------x-x-|--3--------------x-x-|--8-------x-x-3------x-x-|
--3------------------|---------------------|---------------------x-x-|

--3----------------|------------------------------|
--3----------------|------------------------------|
--0----------------|--------------------------3---|
--0----------------|------------------------5-3---|
--x----------------|--5~-3-4-5~-3-4-5-3-5-3-5-----|
--3----------------|------------------------------|

------------------------------|------------------------------|
------------------------------|------------------------------|
------------------------5-3---|--------------------------3---|
------------------------5-3---|------------------------5-3---|
--5~-3-4-5~-3-4-5-3-5-3-------|--5~-3-4-5~-3-4-5-3-5-3-5-----|
------------------------------|------------------------------|

----------------------------|------------------------------|
----------------------------|------------------------------|
----------------------5-3---|--------------------------3b--|
----------------5--3--5-3---|--5--3-4-5-5-3-5----5-5-5-----|
--5~-3-4-5~-3-4-5--3--------|------------------5-----------|
----------------------------|------------------------------|

------------------------------|------------------------------|--------------|
------------------------------|------------------------------|--------------|
------------------------5-3b--|--------------------------3b--|--------------|
--5--3-4-5-5-3-5----5-5-------|--5--3-4-5-5-3-5----5-5-5-----|--5--3--5--3--|
------------------5-----------|------------------5-----------|--------------|
------------------------------|------------------------------|--------------|


                                                              C5
-------------------|------------------------|--3------------------|
-------------------|------------------------|--3------------------|
--5r---------------|--5r--3-5r--3-----------|--0--------------x-x-|
-------------------|--------------5----5/---|--0--------------x-x-|
-------------------|------------------------|--x--------------x-x-|
-------------------|------------------------|--3------------------|


                 F5             C5         G5
---------------------|-------------------------|--3------------------|
--5------------------|--10----------5----------|--3------------------|
--5--------------x-x-|--10------x-x-5----------|--0------------------|
--5--------------x-x-|--10------x-x-5------x-x-|--0--------------x-x-|
--3--------------x-x-|--8-------x-x-3------x-x-|--x--------------x-x-|
---------------------|---------------------x-x-|--3--------------x-x-|


                 C5                    F5             C5         G5
--3------------------|---------------------|-------------------------|
--3------------------|--5------------------|--10----------5----------|
--0--------------x-x-|--5--------------x-x-|--10------x-x-5----------|
--0--------------x-x-|--5--------------x-x-|--10------x-x-5------x-x-|
--x--------------x-x-|--3--------------x-x-|--8-------x-x-3------x-x-|
--3------------------|---------------------|---------------------x-x-|

-----------------------|-------------------------|------------------------|
-----------------------|-------------------------|------------------------|
-----------------------|-----------------3-------|--5b---3---3------5r-3--|
-----------------------|--3--3b-----5~-----5-3---|-------------5----------|
-----------------------|-----------------------5-|------------------------|
--3-1-----------13/-1--|-------------------------|------------------------|

------------1--------6-----|----------5-------------|
---------3-----1/6---------|------------5/8------8--|
--5b--------------------5r-|------3h4---------------|
---------------------------|------------------------|
---------------------------|------------------------|
---------------------------|------------------------|

-----5-8----------------------|-----------------------------|
--8b-----8r-5-8----5-8--------|-----------------------------|
----------------7b-----7r-5---|--7-5------------------------|
----------------------------7-|------7-5--------------------|
------------------------------|----------7-6-5-3-5r-3-------|
------------------------------|-----------------------5~----|

---------3------------3-----|---------3-----|-----------------------|
--5b-------3---5b-------3---|--5b-------3---|--5--------5-----------|
--5b---------3-5b---------3-|--5b---------3-|--5-----------5-----10h|
----------------------------|---------------|-----------------------|
----------------------------|---------------|-----------------------|
----------------------------|---------------|-----------------------|

-----10----------10--------10----------10----|
---------------------------------------------|
--11----12-10h11-----10h11----12-10h11-----8h|
---------------------------------------------|
---------------------------------------------|
---------------------------------------------|

----8--------8------8--------8-----|
-----------------------------------|
--9h--10-8h9----8h9---10-8h9----10h|
-----------------------------------|
-----------------------------------|
-----------------------------------|

-----10----------10--------10----------10----|
---------------------------------------------|
--11----12-10h11-----10h11----12-10h11-----8h|
---------------------------------------------|
---------------------------------------------|
---------------------------------------------|

----8--------8------8--------8-----|
-----------------------------------|
--9h--10-8h9----8h9---10-8h9----10h|
-----------------------------------|
-----------------------------------|
-----------------------------------|

-----10----------10--------10----------10----|
---------------------------------------------|
--11----12-10h11-----10h11----12-10h11-----8h|
---------------------------------------------|
---------------------------------------------|
---------------------------------------------|

----8--------8------8--------8-----|
-----------------------------------|
--9h--10-8h9----8h9---10-8h9----10h|
-----------------------------------|
-----------------------------------|
-----------------------------------|

-----10----------10--------10----------10----|----8--------8--------6---6/--|
---------------------------------------------|----------------------6---6/|-|
--11----12-10h11-----10h11----12-10h11-----8h|--9h--10-8h9---10-6h7---------|
---------------------------------------------|------------------------------|
---------------------------------------------|------------------------------|
---------------------------------------------|------------------------------|

------------------------------|------------------------------|
------------------------------|------------------------------|
--------------------------3b--|------------------------5-3b--|
--5--3-4-5-5-3-5----5-5-5-----|--5--3-4-5-5-3-5----5-5-------|
------------------5-----------|------------------5-----------|
------------------------------|------------------------------|

------------------------------|--------------|-------------------|
------------------------------|--------------|-------------------|
--------------------------3b--|--------------|--5r---------------|
--5--3-4-5-5-3-5----5-5-5-----|--5--3--5--3--|-------------------|
------------------5-----------|--------------|-------------------|
------------------------------|--------------|-------------------|


                                          C5                    F5
------------------------|--3------------------|---------------------|
------------------------|--3------------------|--5------------------|
--5r--3-5r--3-----------|--0--------------x-x-|--5--------------x-x-|
--------------5----5/---|--0--------------x-x-|--5--------------x-x-|
------------------------|--x--------------x-x-|--3--------------x-x-|
------------------------|--3------------------|---------------------|


          C5         G5                                          C5
-------------------------|--3------------------|--3------------------|
--10----------5----------|--3------------------|--3------------------|
--10------x-x-5----------|--0------------------|--0--------------x-x-|
--10------x-x-5------x-x-|--0--------------x-x-|--0--------------x-x-|
--8-------x-x-3------x-x-|--x--------------x-x-|--x--------------x-x-|
---------------------x-x-|--3--------------x-x-|--3------------------|


                 F5             C5         G5
---------------------|-------------------------|--3------------------|
--5------------------|--10----------5----------|--3------------------|
--5--------------x-x-|--10------x-x-5----------|--0------------------|
--5--------------x-x-|--10------x-x-5------x-x-|--0--------------x-x-|
--3--------------x-x-|--8-------x-x-3------x-x-|--x--------------x-x-|
---------------------|---------------------x-x-|--3--------------x-x-|

----------------------------------------|
----------------------15----------------|
--------12-12~-----------14b--14r-12----|
--12h14---------14-12----------------14-|
----------------------------------------|
----------------------------------------|

----------------------------------------|------------------------------|
----------------------15----------------|--13b---13b---13--------------|
--------12-12~-----------14b--14r-12----|--------------------14r-12----|
--12h14---------14-12----------------14-|---------------------------14-|
----------------------------------------|------------------------------|
----------------------------------------|------------------------------|

----------------------------------------|
------15-----15-----15-----15-----------|
--14b----14b----14b----14b----14r-12----|
-------------------------------------14-|
----------------------------------------|
----------------------------------------|

-------------------------15-------------|
----------------------15b---------------|
--------12-12~----------------14r-12----|
--12h14---------14-12----------------14-|
----------------------------------------|
----------------------------------------|

-------------------------15-------------|-----13~------12--------|
--------13-13~--------15b-----15r-13----|--------------13--------|
--12h14---------14-12----------------13h|--14----------12--------|
----------------------------------------|------------------------|
----------------------------------------|------------------------|
----------------------------------------|------------------------|

--------------------|------------------|-------------------|
--12r---------------|------------------|--x----------------|
--------------------|------------------|--x----------------|
--------------------|------------------|--x----------------|
--------------------|------------------|--x----------------|
--------------------|------------------|-------------------|

--------------------|------------------|-------------------|
--12r---------------|------------------|--x----------------|
--------------------|------------------|--x----------------|
--------------------|------------------|--x----------------|
--------------------|------------------|--x----------------|
--------------------|------------------|-------------------|

------------------------|------------------------|------------------------|
------------------------|------------------------|------------------------|
------------------------|-----------------3b-----|--5~---3--4--5~---3--4--|
--5~---3--4--5~---3--4--|--5--3--5--3--5---------|------------------------|
------------------------|------------------------|------------------------|
------------------------|------------------------|------------------------|

------------------------|-------------------------|------------------------|
------------------------|-------------------------|------------------------|
--5--3--5--3--5--3b-----|----------------------5--|------3--4--5--3--5--3b-|
------------------------|--3~---1--2--3--0--3-----|------------------------|
------------------------|-------------------------|------------------------|
------------------------|-------------------------|------------------------|

-----------------------|-------------------------|------------------------|
-----------------------|-------------------------|------------------------|
-----------------3-----|--5--3--------3b---------|------------------------|
------5--3--5~------5--|--------5--3-------5--3--|--5~---3--4--5~---3--4--|
-----------------------|-------------------------|------------------------|
-----------------------|-------------------------|------------------------|

------------------------|------------------------|------------------------|
------------------------|------------------------|------------------------|
-----------------3b-----|--5~---3--4--5~---3--4--|--5--3--5--3--5--3b-----|
--5--3--5--3--5---------|------------------------|------------------------|
------------------------|------------------------|------------------------|
------------------------|------------------------|------------------------|

-------------------------|------------------------|-----------------------|
-------------------------|------------------------|-----------------------|
----------------------5--|------3--4--5--3--5--3b-|-----------------3-----|
--3~---1--2--3--0--3-----|------------------------|------5--3--5~------5--|
-------------------------|------------------------|-----------------------|
-------------------------|------------------------|-----------------------|

-------------------------|----------------------|---------------------|
-------------------------|----------------------|---------------------|
--5--3--------3b---------|-----------3----------|-----------3---------|
--------5--3-------5--3--|--5-----------5----5~-|------3-------5~-----|
-------------------------|----------------------|---------------------|
-------------------------|----------------------|---------------------|

----------------------|---------------------|---------------------|
--5r-----3--5r-----3--|--5r-----3--5~-------|--6------------x--5--|
--5r-----3--5r-----3--|--5r-----3--5~-------|--5------------x--5--|
----------------------|---------------------|---------------------|
----------------------|---------------------|---------------------|
----------------------|---------------------|---------------------|

-------------------|-----------------------|------------------------|
----------------3b-|-----------------3-----|--------------3--3/-----|
----------------3b-|-----------------3-----|--3--2--------3--3/-----|
-------------------|------5--3--5~------5--|--------5--3------------|
-------------------|-----------------------|------------------------|
-------------------|-----------------------|------------------------|

------------------------|------------------------------|
------------15b---------|--15b---15b---15b---15b-------|
------12----------------|------------------------------|
--12--------------------|------------------------------|
------------------------|------------------------------|
------------------------|------------------------------|

----------------------------------------|
--15b---15----14----13----------13--15--|
--------------------------15------------|
----------------------------------------|
----------------------------------------|
----------------------------------------|

--------------------------------------------------|
--13h-15h-13/-11h13h11h-13-11/10--11h10----10h11--|
----------------------------------------12--------|
--------------------------------------------------|
--------------------------------------------------|
--------------------------------------------------|

------------------10--15--------15----------|
--10------10/-13b---------18b-------18h-15--|
------12------------------------------------|
--------------------------------------------|
--------------------------------------------|
--------------------------------------------|

------15------15------15------15------15----------|
--18b-----18------18b-----18------18b-----18h-15--|
--------------------------------------------------|
--------------------------------------------------|
--------------------------------------------------|
--------------------------------------------------|

------15------15--------15----15----------|--18b-------21/-------|
----------18------18b-------------18h-15--|----------------------|
--17b-------------------------------------|----------------------|
------------------------------------------|----------------------|
------------------------------------------|----------------------|
------------------------------------------|----------------------|

--3--------3--------3--------3--------|--3--------3--------3--------3------|
-----6h-3-----6h-3-----6h-3-----6h-3--|-----6h-3-----6h-3-----6h-3-----6h-3|
--------------------------------------|------------------------------------|
--------------------------------------|------------------------------------|
--------------------------------------|------------------------------------|
--------------------------------------|------------------------------------|

--3--------3--------3--------3--------|--3--------3--------3--------3--------|
-----6h-3-----6h-3-----6h-3-----6h-3--|-----6h-3-----6h-3-----6h-3-----6h-3--|
--------------------------------------|--------------------------------------|
--------------------------------------|--------------------------------------|
--------------------------------------|--------------------------------------|
--------------------------------------|--------------------------------------|

------6--5h6h5--------------------|----------------------------|
--6/8----------8h6-8--5h6h8-5h6h8-|--6h5--------3-----3--------|
----------------------------------|------7h5-5b----5b----5b-5--|
----------------------------------|----------------------------|
----------------------------------|----------------------------|
----------------------------------|----------------------------|

------------------------------|-------------------------------|
------------------------------|-------------------------------|
--3h-5h-3--------3------------|-------------------------------|
-----------3h-5-----5~-----3--|--5h-5-----------3-------------|
------------------------------|--------5--3h-5-----3--1-------|
------------------------------|--------------------------3~---|

-----------------------|------------------------|--------------------------|
-----------------------|------------------------|--------------------------|
-----------------------|------------------------|--------------------------|
-----------------------|------------------------|--------3-----5--3--------|
-----------------1-----|--3r-----1--3--1--------|--3/-5-----5--------5--3--|
--1b---1--3~--------3--|------------------3--x--|--------------------------|

-------------------------|------------------------|-----------------------|
--3----------------------|--3---------------------|--3--------------------|
--3----------------3-----|--3---------------3-----|--3--------------3-----|
-------5h3h5~---5-----5--|-------5--5~---5-----5--|---------5~---5-----5--|
-------------------------|------------------------|-----------------------|
-------------------------|------------------------|-----------------------|

----------3-----3--------|-----3---------------|-----3--------------3--|
-------3--------3--3-----|--3-----5b-----------|--3-----5b-------3-----|
--5b---------5b-------5b-|--------5b-----------|--------5b-------------|
-------------------------|---------------------|-----------------------|
-------------------------|---------------------|-----------------------|
-------------------------|---------------------|-----------------------|

--------------------|------------3-------|--3---------3-6h3----8r---|
--5b-------------5b-|---------------6b---|-----6b---6-------6-------|
--5b-------------5b-|--------------------|--------------------------|
--------------------|--------------------|--------------------------|
--------------------|--------------------|--------------------------|
--------------------|--------------------|--------------------------|

--6-----8h-6--------10b-10--|--9--8------8--9--10--------|
-----8--------8h-6----------|--------10b-----------10r---|
----------------------------|----------------------------|
----------------------------|----------------------------|
----------------------------|----------------------------|
----------------------------|----------------------------|

---------------------------|-----------------------10--|
--8-----10-----8----10-----|--8----10-----8--10b-------|
-----9------9-----------9--|-----------9---------------|
---------------------------|---------------------------|
---------------------------|---------------------------|
---------------------------|---------------------------|

--------------------------|----------------------------|
--10-----8~---10-----8~---|--10-----8~---10-----8--10--|
------9-----------9-------|------9-----------9---------|
--------------------------|----------------------------|
--------------------------|----------------------------|
--------------------------|----------------------------|

------------------------------------|
--8h-10--11--10h11h10h8-----10------|
------------------------10------10--|
------------------------------------|
------------------------------------|
------------------------------------|

---------------------------------------------|
--8------10h11h10----10h-11h-13--10h-11h-13--|
-----12-----------12-------------------------|
---------------------------------------------|
---------------------------------------------|
---------------------------------------------|

--10h-12------10h-12h-13--15h-12h-13--17--13h15-|
----------13------------------------------------|
------------------------------------------------|
------------------------------------------------|
------------------------------------------------|
------------------------------------------------|

--15h-17------18--15h17-15------15--------15--|
----------18----------------18------18b-------|
----------------------------------------------|
----------------------------------------------|
----------------------------------------------|
----------------------------------------------|

------------------------------------------------|--x-18b------------------|
--18h15-18h15----15-18h15----15----15-----------|----17b------17~---14----|
--------------18----------18----18----17r-15----|-------------------------|
---------------------------------------------17-|-------------------------|
------------------------------------------------|-------------------------|
------------------------------------------------|-------------------------|

--------------------------12-13h15h13h12----13h12-|
--------------12h-13h-15-----------------15-------|
--12h-14h-15--------------------------------------|
--------------------------------------------------|
--------------------------------------------------|
--------------------------------------------------|

--------12----------------------------------------|
--15-13----15h13-12-15-13h12----14h13h12----15h14h|
-----------------------------15----------14-------|
--------------------------------------------------|
--------------------------------------------------|
--------------------------------------------------|

------------------------------------------------|
--13h12-------12h10-------10--------------------|
--------14h12-------12h10----12h10/9-12h10h9----|
---------------------------------------------12-|
------------------------------------------------|
------------------------------------------------|

-------------------------------------------|-----------------------------*-|
-------------------------------------------|-------------------------------|
--10h9-------9-----------------------------|-------------------------------|
-------12-10---12h10-9-12-10r----10r----10-|--10----------10----------10-10|
------------------------------13-----13----|-------------------------------|
-------------------------------------------|--------10-10-------10-10------|

--------------------------------------------------|
--------------------------------------------------|
--------------------------------------------------|
--------------------------15h-16h-17--15h-16h-17--|
--15h-16h-17--15h-16h-17--------------------------|
--------------------------------------------------|

--------------------------------------------------------|
-----------------------------15h16h17----------15h16h17-|
--15h16h17----------15h16h17----------15h16h17----------|
-----------15h16h17-------------------------------------|
--------------------------------------------------------|
--------------------------------------------------------|

--------------15----------------|------------------------------|
--16h-17h-18------18b-----------|------------------------------|
--------------------------------|------------------------------|
--------------------------------|------------------------------|
--------------------------15/---|------------------------------|
--------------------------------|--3--1-2-3--1-2-3--1-2-3--1-2-|

------------------------------|--------------------------------------|
------------------------------|--------------------------------------|
------------------------------|--------------------------------------|
------------------------------|--3--4--5--3--4--5--3--4--5--3--4--5--|
------------------------------|--------------------------------------|
--3--1-2-3--1-2-3--1-2-3--1-2-|--------------------------------------|

--------------------------------------|--------------------------|
--------------------------------------|--------------------------|
--------------------------------------|-----------3---------3b---|
--3--4--5--3--4--5--3--4--5--3--4--5--|--3--4--5----5~-----------|
--------------------------------------|--------------------------|
--------------------------------------|--------------------------|

---------------------|-------------------|------------------------|
---------------------|-------------------|------------------------|
----------5r--3h5~---|--5b---------------|--5--3--5-----3----3b---|
---------------------|-------------------|-----------5------------|
---------------------|-------------------|------------------------|
---------------------|-------------------|------------------------|

-------------------|------------12------------------|
-------------------|--------15------15--12----------|
-------------------|--14b-------------------14b-14--|
--5~---------------|--------------------------------|
-------------------|--------------------------------|
-------------------|--------------------------------|

--------------------------------|----------------------------------|
--------------------------------|----------------------------------|
--12------14------12~---12--12--|--14h12-----12--12~---12--14--12--|
------14------14----------------|--------14------------------------|
--------------------------------|----------------------------------|
--------------------------------|----------------------------------|

------------------------------|--------------------------------|
--------12--15----------------|--------------------13--14--15--|
--14b-----------14r---12------|--14------12--14b---------------|
--------------------------14--|------14------------------------|
------------------------------|--------------------------------|
------------------------------|--------------------------------|

----------------------------------|--------------------------------------|
------13--15------13--15------13--|--15------13--15------13--15h13----13-|
--14b---------14b---------14b-----|------14b---------14b-----------15b---|
----------------------------------|--------------------------------------|
----------------------------------|--------------------------------------|
----------------------------------|--------------------------------------|

--------------------------------------------------|
--15h13----13-15h13----13-15h13----13-15h13----13-|
--------15b---------15b---------15b---------15b---|
--------------------------------------------------|
--------------------------------------------------|
--------------------------------------------------|

--------------------------------------------------|
--15h13----13-15h13----13-15h13----13-15h13----13-|
--------15b---------15b---------15b---------15b---|
--------------------------------------------------|
--------------------------------------------------|
--------------------------------------------------|

--------------------------------------------------|
--15h13----13-15h13----13-15h13----13-15h13----13-|
--------15b---------15b---------15b---------15b---|
--------------------------------------------------|
--------------------------------------------------|
--------------------------------------------------|

--------------------------------------------------|
--15h13----13-15h13----13-15h13----13-15h13----13-|
--------15b---------15b---------15b---------15b---|
--------------------------------------------------|
--------------------------------------------------|
--------------------------------------------------|

----------------------------------------------------------------|
--15b-13h15h13/12-13-12h13-12-------12--------------------------|
------------------------------14h12----14r-12----14h12----------|
----------------------------------------------14-------12h14-12r|
----------------------------------------------------------------|
----------------------------------------------------------------|

-------------------|---------------------------------------------|
-------------------|---------------------------------------------|
----------------5b-|--5r-3-5h3---5r-3---5---3b--3b---------------|
-------------------|-----------5------5---5---5---5-3------------|
-------------------|----------------------------------5-4-3-3r-1-|
-------------------|---------------------------------------------|

-----------------------|------------------|------------------|
-----------------------|------------------|------------------|
--------------------3b-|------------------|------------------|
--------5~-------------|------------------|------------------|
--3-1-2----------------|------------------|------------------|
-----------------------|------------------|------------------|

-------------------|----------|------------------||
-------------------|----------|------------------||
-------------------|----------|------------------||
--5----------------|----------|------------------||
--5----------------|----------|------------------||
--3----------------|----------|------------------||

| /  slide up
| \  slide down
| h  hammer-on
| p  pull-off
| ~  vibrato
| +  harmonic
| x  Mute note
============================================================================

Hope this worked for you!

~Slash is god





Comments


Popular Guns N Roses tabs & chords
It's So Easy 1 Bass Tabs
Nightrain 2 Bass Tabs
Dead Horse Chords
Estranged Drum Tabs
Chinese Democracy Intro Tabs
Double Talkin' Jive 2 Tabs
Patience 11 Tabs
Sweet Child O Mine Intro 1 Tabs
Sweet Child Of Mine 1 Tabs
If The World Ukulele


Song lyrics



↑ Back to top | Tablatures and chords are parodies/interpretations of the original songs. You may use it for private study, scholarship, research or language learning purposes only
© 2014 AZChords.com Contact us | Privacy policy | DMCA | Add/correct tabs | Request tabs | Top 50 tabs