>
 >
Paradise City 3

Paradise City 3 Guitar Tabs

Guns N Roses - Paradise City 3 chords, tabs, tablatures, lyrics

Guitar lessons | Add/correct | Request | Top 50 tabs Artists:  A B C D E F G H I J K L M N O P Q R S T U V W X Y Z 0-9

Paradise City 3 Guitar Tabs – Guns N Roses

CD, Sheet music, Poster

Do you like Paradise City 3? Share with your friends now
Bass TabsBass Tabs v2Bass Tabs v3ChordsChords v2Drum TabsTabsTabs v2Tabs v3Tabs v4Tabs v5Tabs v6Tabs v7Ukulele
                                  PARADISE CITY
                          As recorded by Guns N' Roses
                  (From the 1987 Album APETITE FOR DESTRUCTION)

Words and Music by W. Axl Rose, Slash, Izzy Stradlin, Duff "Rose" McKagan, Steven Alder

          G5                   C5                    C                   F5
      3 x 0 0 3 3          x 3 5 5 x x          x 3 5 5 5 x         x 8 10 10 x x

           F                   D5                   Bb               G5(type 2)
    x 8 10 10 10 x         x 5 7 7 x x          x 1 3 3 3 x          3 5 5 x x x

Gtr I (Eb Ab Db Gb Bb Eb) - 'Izzy Stradlin - clean electric w/chorus'
Gtr II (Eb Ab Db Gb Bb Eb) - 'Izzy Stradlin - Rhythm w/dist'
Gtr III (Eb Ab Db Gb Bb Eb) - 'Slash - Rhythm & Lead w/dist'
Gtr IV (Eb Ab Db Gb Bb Eb) - 'Keyboard arr. for guitar'

   Intro
    Q=104
   4/4
    Gtr I
||--^3--3-----3-(3)-----3-------|---------3-----3-(3)-----3-------|
||o-^0----0---------0-----0---0-|-1---------1---------1-----1---1-|
||--^0------0---------0-----0---|-0-----------0---------0-----0---|
||--^0--------------------------|-0h2---2-------------------------|
||o-^2--------------------------|-----3---------------------------|
||--^3--------------------------|---------------------------------|


|-------3---------------3-------|---3-----3-(3)--------------------||
|-1---1---1---1-1-----1---1---0-|-0---0---------0-----0---0-------o||
|-0h2-------2---0-----------0---|-0-----0---------0h2---0-------0--||
|-0h3-----------0h2-------------|-0-------------------------0h2----||
|-------------------3-----------|-2-------------------------------o||
|-------------------------------|-3--------------------------------||


   Chorus
||--^3--3-----3-(3)-----3-------|---------3-----3-(3)-----3-------|
||o-^0----0---------0-----0---0-|-1---------1---------1-----1---1-|
||--^0------0---------0-----0---|-0-----------0---------0-----0---|
||--^0--------------------------|-0h2---2-------------------------|
||o-^2--------------------------|-----3---------------------------|
||--^3--------------------------|---------------------------------|


|-------3---------------3-------|---3-----3-(3)----------------------||
|-1---1---1---1-1-----1---1---0-|-0---0---------0-----0---0---------o||
|-0h2-------2---0-----------0---|-0-----0---------0h2---0-------0----||
|-0h3-----------0h2-------------|-0-------------------------0h2------||
|-------------------3-----------|-2---------------------------------o||
|-------------------------------|-3----------------------------------||


                             1.
    G5(type 2)   C5           F5     C5   G
    Gtr II
     |       ||   |       ||   |   || |   ||
     /       xx   /       xx   /   xx /   o/

    Gtr IV
||--15---------|------------|-13-----17-----|
||o------------|-13---------|---------------|
||-------------|------------|---------------|
||-------------|------------|---------------|
||o------------|------------|---------------|
||-------------|------------|---------------|


                 2.
  G5             F5     C5   G   G5
   |       ||     |   || |   ||   |       ||
   /       xx     /   xx /   xx   /       xx

|-15----------||-13------------|------------|
|------------o||--------17-----|-15---------|
|-------------||---------------|------------|
|-------------||---------------|------------|
|------------o||---------------|------------|
|-------------||---------------|------------|


    G5(type 2)
    Gtr II
     |                                          |  |
     /                                          x  x

    Gtr III
              ~~~~~~~
||---------------------------------------------------|
||o------------------------15------------------------|
||--------12-12-(12)----------14b16-14b16r(14)-12----|
||--12h14------------14-12------------------------14-|
||o--------------------------------------------------|
||---------------------------------------------------|


                                                    1.
  C5                                                 F5             C5             G     G5
   |                                          |  |    |           || |             | |    |          ||
   /                                          x  x    /           xx /             o /    /          xx

            ~~~~~~~                                                                       ~~~~~
|--------------------------------------------------|-----------------------------------|----------------||
|------------------------15------------------------|-13b15--13b15---13--10b12r(10)-8---|-10b12---------o||
|-------12-12-(12)----------14b16-14b16r(14)-12----|---------------------------------9-|----------------||
|-12h14------------14-12------------------------14-|-----------------------------------|----------------||
|--------------------------------------------------|-----------------------------------|---------------o||
|--------------------------------------------------|-----------------------------------|----------------||


  2.
                                               $
  F5                C5               G5
   |            | |  |        |  |    |
   /            x x  /        x  x    /

                                               Gtrs II, III
-------------------------------------------------------------------------|
|----------------15----------------|-----------||---------------------------|
|-13b15--13b15======13r(13)--12h13-|-12--------||o--------------------------|
|----------------------------------|-----------||------------------------3--|
|----------------------------------|-----------||----------------------5-3--|
|----------------------------------|-----------||o-5-3-4-5-3-2-5-3-5-3-5-1--|
|----------------------------------|-----------||--3-1-2-3-1-2-3-1-3-1-3----|


  ~M-------------------------------------------------
|-------------------------|-------------------------|
|-------------------------|-------------------------|
|-----------------------3-|-----------------------3-|
|---------------------5-3-|---------------------5-3-|
|-5-3-4-5-3-2-5-3-5-3-5-1-|-5-3-4-5-3-2-5-3-5-3-5-1-|
|-3-1-2-3-1-2-3-1-3-1-3---|-3-1-2-3-1-2-3-1-3-1-3---|


 -----------------------|
|--------------------------||
|--------------------------||
|-----------------------3--||
|---------------------5-3--||
|-5-3-4-5-3-2-5-3-5-3-5-1--||
|-3-1-2-3-1-2-3-1-3-1-3----||


 Verses
  $$
  Gtr II
  ~M--------------------|               ~M------------------|
|-------------------------------------|----------------------------------------|
|-------------------------3-----------|-----------------------5----3-----------|
|-------------------------3-----------|-----------------------5----3-----------|
|-------------------------3-----------|-----------------------5----3-----------|
|-------------------------1-----------|-----------------------3----1-----------|
|-1-1-2-3-3-1-2-3-1-3-1-3-------------|-3-1-2-3-3-1-2-3-1-3-1------------------|
|
| Gtr III
| PM--------------------|               PM------------------|
|-------------------------------------|----------------------------------------|
|-------------------------------------|----------------------------------------|
|-------------------------3b3.5==(3)r-|-----------------------5----3b3.5==(3)r-|
|-5-3-4-5-5-3-5-----5-5-5-------------|-5-3-4-5-5-3-5-----5-5------------------|
|-----------------5-------------------|-----------------5----------------------|
|-------------------------------------|----------------------------------------|
|
| ~     ~                 ~~~~~~~~~~~~~~~~    ~                    ~~~~~~~
|-------------------------------------|----------------------------------------|
|-------------------------3-----------|-----------------------3b5r(3)----------|
|-4-2-3-4---2-3-4-2-4-2-4-------------|-4-2-3-4---2-3-4-2-4-2------------------|
|-------------------------------------|----------------------------------------|
|-------------------------------------|----------------------------------------|
|-------------------------------------|----------------------------------------|


                                       2/4
  ~M--------------------|               ~ PM|
|-------------------------------------|-------------|
|-------------------------3-----------|---------3---|
|-------------------------3-----------|---------3---|
|-------------------------3-----------|---------3---|
|-------------------------1-----------|---------1---|
|-3-1-2-3-3-1-2-3-1-3-1-3-------------|-3-1-2-3-----|
|
| PM--------------------|               PM--------|
|-------------------------------------|-------------|
|-------------------------------------|-------------|
|-------------------------3b3.5==(3)r-|-------------|
|-5-3-4-5-5-3-5-----5-5-5-------------|-5-3---5---3-|
|-----------------5-------------------|-------------|
|-------------------------------------|-------------|
|
| ~     ~                 ~~~~~~~~~~~~~~~~
|-------------------------------------|-------------|
|-------------------------3-----------|-------------|
|-4-2-3-4---2-3-4-2-4-2-4-------------|-4-2-3-4---2-|
|-------------------------------------|-------------|
|-------------------------------------|-------------|
|-------------------------------------|-------------|


                               1.
 4/4
                                                            ~~~
|-----------------------------|--------------------------------------------||
|-5---------------------------|-------------------------------------------o||
|-5---------------------------|--------------------------------------------||
|-5---------------------------|--------------------------------------------||
|-3---------------------------|-3b4==(3)r(3)-1-3----1---------------------o||
|-----------------------------|------------------------1-3-(3)--(3)s(10)\--||
|
|-----------------------------|--------------------------------------------||
|-----------------------------|-------------------------------------------o||
|-5b7===(5)r(5)b7==(5)r(5)----|-5b6==(5)r(5)-3-5b6r(5)-3-------------------||
|-----------------------------|--------------------------5-(5)--(5)s(12)\--||
|-----------------------------|-------------------------------------------o||
|-----------------------------|--------------------------------------------||
|
|--------------------------0--|--------------------------------------------||
|-------------------1---------|-------------------------------------------o||
|--------0--------------------|--------------------------------------------||
|-2---------------------------|--------------------------------------------||
|-----------------------------|-------------------------------------------o||
|-----------------------------|--------------------------------------------||


  2.,D.S.,D.S.S.
                              ~~~~
|--------------------------------------------||
|--------------------------------------------||
|--------------------------------------------||
|--------------------------------------------||
|-3b4==(3)r(3)-1-3----1----------------------||
|------------------------1-3-(3)---(3)s(10)\-||
|
|--------------------------------------------||
|--------------------------------------------||
|-5b6==(5)r(5)-3-5b6r(5)-3-------------------||
|--------------------------5-(5)---(5)s(12)\-||
|--------------------------------------------||
|--------------------------------------------||
|
|--------------------------------------------||
|-5b6==(5)r(5)-3-5----3----------------------||
|------------------------3-4-(4)\------------||
|--------------------------------------------||
|--------------------------------------------||
|--------------------------------------------||


 Chorus
  G5(type 2) C5         F5   C5 G   G5
  Gtrs II, III
  |      ||  |      ||  |  |||  ||  |      ||
  /      xx  /      xx  /  xx/  o/  /      xx

|----------|----------|-----------|-----------|
|----------|----------|-----------|-----------|
|----------|----------|-----------|-----------|
|----------|----------|-----------|-----------|
|----------|----------|-----------|-----------|
|----------|----------|-----------|-----------|


               To Coda           D.S. al Coda
               To Coda
  G5(type 2) C5         F5   C5 G   G5
  |      ||  |      ||  |  |||  ||  |      ||
  /      xx  /      xx  /  xx/  o/  /      xx

|----------|----------|-----------|-----------||
|----------|----------|-----------|-----------||
|----------|----------|-----------|-----------||
|----------|----------|-----------|-----------||
|----------|----------|-----------|-----------||
|----------|----------|-----------|-----------||


  &
  Gtr III
|---------------|----------------------||
|---------------|----------------------||
|---------------|----------------------||
|---------------|----------------------||
|---------------|----------------------||
|---------------|----------------------||
|
| Gtr II
|      PM|
|---------------|----------------------||
|-10-------5----|----------------------||
|-10---5-5-5----|----------------------||
|-10---5-5-5----|----------------------||
|--8---3-3-3----|----------------------||
|---------------|-3-1-(1)----/(13)s(1)-||


 Guitar Solo
                    ~
|-----------------------------------|-------------------------------------|
|-----------------------------------|-------------------------------------|
|---------------------------3-------|-5b7====(5)r-3---3---------5b7r(5)-3-|
|-3-3b5======(3)r---5---------5-3---|-------------------5-----------------|
|---------------------------------5-|-------------------------------------|
|-----------------------------------|-------------------------------------|
|
| ~M----------------------------------------------------------------|
|-----------------------------------|-------------------------------------|
|-----------------------------------|-------------------------------------|
|-----------------------------3-----|---------------------------5----3----|
|-----------------------------3-----|---------------------------5----3----|
|-5-3----4-5--3---4-5-3-5-3-5-1-----|-5----3--4---5-3-2-5-3-5-3-3----1----|
|-3-1----2-3--1---2-3-1-3-1-3-------|-3----1--2---4-1-2-3-1-3-1-----------|


|-------------------1------------6--------|---------------5--------------------|
|---------------3-------/6----------------|-----------------/8-(8)-----------8-|
|-5b7======(5)r----------------------5b7==|=(5)r(5)---3h4----------------------|
|-----------------------------------------|------------------------------------|
|-----------------------------------------|------------------------------------|
|-----------------------------------------|------------------------------------|
|
|-------------------------------------------------------------------------------
|-----------------------------------------|------------------------------------|
|-----------------------------------------|------------------------------------|
|----------------------------------3------|------------------------------5-3---|
|----------------------------------3------|------------------------------5-3---|
|-5----3-4--5-----3---4--5-3-5-3-5-1------|--5---3--4-5---3--2--5--3-5-3-3-1---|
|-3----1-2--3-----1---2--3-1-3-1-3--------|--3---1--2-4---1--2--3--1-3-1-------|


|------5-8---------------------------------------|
|-8b10-----8pb10r(8)-5-8-------5-8---------------|
|------------------------7b9-------7pb9r(7)-5----|
|---------------------------------------------7--|
|------------------------------------------------|
|------------------------------------------------|
|
|---------------------------------------|
|------------------------------------------------|
|------------------------------------------------|
|----------------------------------------5-------|
|----------------------------------7-----5-------|
|-7----5-6-7---------5-6-7---5-7-5-7-----3-------|
|-5----3-4-5---------3-4-5---3-5-3-5-------------|


      PM--------|           ~~~~~~
|-----------------------------------|
|-----------------------------------|
|-7-5-------------------------------|
|-----7-5---------------------------|
|---------7-6-5-3-5b7r(5)-3---------|
|---------------------------5-(5)---|
|
| ~M---------------------------------
|-----------------------------------|
|-----------------------------------|
|------------------------------7--5-|
|------------------------------7--5-|
|-7---5-6-7---5-6-7----5--7-5--5--3-|
|-5---3-4-5---3-4-5----3--5-3-------|


                                                 2/4
|---------------3-------------------------3-----|---------------3-----|
|-5b6======(5)r---3-----5b6========(5)r-----3---|-5b6======(5)r---3---|
|-5b6======(5)r-------3-5b6========(5)r-------3-|-5b6======(5)r-----3-|
|-----------------------------------------------|---------------------|
|-----------------------------------------------|---------------------|
|-----------------------------------------------|---------------------|
|
|---------------------------------------|         ~~~~
|-----------------------------------------------|---------------------|
|-----------------------------------------------|---------------------|
|---------------------------------------3-------|---------------------|
|---------------------------------------3-------|-----------5---3-----|
|-5----3-4--5---3---4---5----3-5-3--5---1-------|-5----3-4--5---3-----|
|-3----1-2--3---1---2---3----1-3-1--3-----------|-3----1-2--3---1-----|


  C5                D5
 4/4
  Gtr II
  |                  |  |  |  |  |    | |  |  |  |  |  |    ||
  /                  /  /  /  /  /    x x  /  /  /  /  /    xx

  Gtr III
|---------------||-----10----------10--------10----------10----|
|-5----5--------||o--------------------------------------------|
|-5------5---10h||==11----12-10h11-----10h11----12-10h11-----8-|
|---------------||---------------------------------------------|
|---------------||o--------------------------------------------|
|---------------||---------------------------------------------|


  C5
  | |  | | |    || |  |  | | |    | |
  / /  / / /    xx /  /  / / /    x x

|---8--------10------10--------10--------|
|----------------------------------------|
|-9---10-8h9-----8h9----10-8h9-----10h===|
|----------------------------------------|
|----------------------------------------|
|----------------------------------------|


  D5
   |  |  |  |  |    | |  |  |  |  |  |    ||
   /  /  /  /  /    x x  /  /  /  /  /    xx

|----10----------10--------10----------10----|
|--------------------------------------------|
|-11----12-10h11-----10h11----12-10h11-----8h|
|--------------------------------------------|
|--------------------------------------------|
|--------------------------------------------|


 1.                                       2.
                                                   D.S.S. al Dbl. Coda
  C5                                      C                 Bb
  | |  | | |    || |  |  | | |    | |     |                 |
  / /  / / /    xx /  /  / / /    x x     /                 /

|---8--------10------10--------10------||---8--------8--------6-(6)\---||
|-------------------------------------o||---------------------6-(6)\---||
|-9---10-8h9-----8h9----10-8h9-----10h=||=9---10-8h9---10-6h7----------||
|--------------------------------------||------------------------------||
|-------------------------------------o||------------------------------||
|--------------------------------------||------------------------------||


  &&
  F    C5 G   G5
  |  |||  ||  |      ||
  /  xx/  o/  /      xx

|-----------|----------||
|-----------|----------||
|-----------|----------||
|-----------|----------||
|-----------|----------||
|-----------|----------||


  G5(type 2)                                         C5
  Gtr II
   |                                          |  |    |                                          |  |
   /                                          x  x    /                                          x  x

  Gtr III
            ~~~~~~~                                            ~~~~~~~
|--------------------------------------------------|--------------------------------------------------|
|------------------------15------------------------|------------------------15------------------------|
|-------12-12-(12)----------14b16-14b16r(14)-12----|-------12-12-(12)----------14b16-14b16r(14)-12----|
|-12h14------------14-12------------------------14-|-12h14------------14-12------------------------14-|
|--------------------------------------------------|--------------------------------------------------|
|--------------------------------------------------|--------------------------------------------------|
|
| Gtr IV
|-15-----------------------------------------------|--------------------------------------------------|
|--------------------------------------------------|-13-----------------------------------------------|
|--------------------------------------------------|--------------------------------------------------|
|--------------------------------------------------|--------------------------------------------------|
|--------------------------------------------------|--------------------------------------------------|
|--------------------------------------------------|--------------------------------------------------|


  F5             C5             G     G5
   |           || |             | |    |                                                     |  |
   /           xx /             o /    /                                                     x  x

|-----------------------------------|--------------------------------------------------------------|
|-13b15--13b15---13--10b12r(10)-8---|-------15--------------15-------15-------15-------------------|
|---------------------------------9-|-14b16----14b16==(14)r----14b16----14b16----14b16r(14)p12-----|
|-----------------------------------|----------------------------------------------------------14--|
|-----------------------------------|--------------------------------------------------------------|
|-----------------------------------|--------------------------------------------------------------|
|
|-13--------------------------------|--------------------------------------------------------------|
|----------------17-----------------|-15-----------------------------------------------------------|
|-----------------------------------|--------------------------------------------------------------|
|-----------------------------------|--------------------------------------------------------------|
|-----------------------------------|--------------------------------------------------------------|
|-----------------------------------|--------------------------------------------------------------|


  G5(type 2)
   |                                          |  |
   /                                          x  x

            ~~~~~~~
|--------------------------------------------------|
|------------------------15------------------------|
|-------12-12-(12)----------14b16-14b16r(14)-12----|
|-12h14------------14-12------------------------14-|
|--------------------------------------------------|
|--------------------------------------------------|
|
|-15-----------------------------------------------|
|--------------------------------------------------|
|--------------------------------------------------|
|--------------------------------------------------|
|--------------------------------------------------|
|--------------------------------------------------|


  C5                                                  F5           C5   G   G5
   |                                           |  |    |         || |   ||   |
   /                                           x  x    /         xx /   o/   /

            ~~~~~~~                                       ~~~~~~~
|-------------------------------15------------------|----13-(13)---12-----|-------------------||
|-------------------------15b17----15b17r(15)-13----|--------------13-----|-12pb13r===(12)----||
|-------13-13-(13)-------------------------------13h|=14-----------12-----|-------------------||
|-12h14------------14-12----------------------------|---------------------|-------------------||
|---------------------------------------------------|---------------------|-------------------||
|---------------------------------------------------|---------------------|-------------------||
|
|---------------------------------------------------|-13------------------|-------------------||
|-13------------------------------------------------|--------------17-----|-15----------------||
|---------------------------------------------------|---------------------|-------------------||
|---------------------------------------------------|---------------------|-------------------||
|---------------------------------------------------|---------------------|-------------------||
|---------------------------------------------------|---------------------|-------------------||


  G5
    |           |            |                    |           |       |
    /           /            /                    /           /       x

|-------------|-----------|-------------------|-------------|-----------||
|-(12)--------|-x/--------|-12pb13r===(12)----|-(12)--------|-x/--------||
|-------------|-x/--------|-------------------|-------------|-x/--------||
|-------------|-x/--------|-------------------|-------------|-x/--------||
|-------------|-x/--------|-------------------|-------------|-x/--------||
|-------------|-----------|-------------------|-------------|-----------||


    Double time Q=208
    G5
    |  | | | |  |   | | | | | |        |
    /  / / / /  /   / / / / / /        /

    ~      ~
||----------------|------------------------|
||o---------------|------------------------|
||----------------|-----------3b3.5===(3)r-|
||--5--3-4-5--3-4-|-5-3-5-3-5--------------|
||o---------------|------------------------|
||----------------|------------------------|


  C5
  |  | | | |  |   | | | | | |        |
  /  / / / /  /   / / / / / /        /

  ~      ~
|---------------|-------------------------|
|---------------|-------------------------|
|-5--3-4-5--3-4-|-5-3-5-3-5-3b3.5===(3)r--|
|---------------|-------------------------|
|---------------|-------------------------|
|---------------|-------------------------|


  F5                C5
  |                  |
  /                  /

  ~
|-----------------|-----------------------|
|-----------------|-----------------------|
|--------------/5-|-(5)--3-4-5-3-5-3b3.5==|
|-3--1-2-3-0-3----|-----------------------|
|-----------------|-----------------------|
|-----------------|-----------------------|


  G5(type 2)
   |       | | |    |     |   | |         | |
   /       / / /    /     /   / /         / /

               ~          PM--|             PM
|---------------------|------------------------||
|---------------------|-----------------------o||
|-(3)-(3)r--------3---|-5-3-----3b4==(3)r------||
|----------5-3-5----5-|-----5-3-----------5-3--||
|---------------------|-----------------------o||
|---------------------|------------------------||


  G5
  |  | || |  |   |  || || |  |
  /  / // /  /   /  // // /  /

  ~       ~~~~~~~~~~      ~
|-------------|---------------|
|-------------|---------------|
|-------3-----|---------3-----|
|-5--3----5---|-(5)--3----5---|
|-------------|---------------|
|-------------|---------------|


  C5
  |         |  | |     |      |   |     |   |  | | | |
  /         /  / /     /      /   /     /   /  / / / /

                                                 ~
|-------------------------------|---------------------|
|-5b6==(5)r(5)-3-5b6==(5)r(5)-3-|-5b6==(5)r(5)-3-5----|
|-5b6==(5)r(5)-3-5b6==(5)r(5)-3-|-5b6==(5)r(5)-3-5----|
|-------------------------------|---------------------|
|-------------------------------|---------------------|
|-------------------------------|---------------------|


  F5           C5            G5(type 2)
  |             |             |            | | |    |     |   | |      ||
  /             /             /            / / /    /     /   / /      //

                                               ~
|------------|-------------|--------------------------|------------------|
|-6------x-5-|-(5)-------3-|-(3)b3.5==(3)r--------3---|---------3-(3)\---|
|-5------x-5-|-(5)-------3-|-(3)b3.5==(3)r--------3---|-3-2-----3-(3)\---|
|------------|-------------|---------------5p3-5----5-|-----5-3----------|
|------------|-------------|--------------------------|------------------|
|------------|-------------|--------------------------|------------------|


  G5
    |    | |       |   | |   |    |      |      | |    | |
    /    / /       /   / /   /    /      /      / /    / /

|-------------------------|-------------------------------|
|---------15b18==(15)r----|-15b18--15b18--15b18--15b18----|
|-----12------------------|-------------------------------|
|-/14---------------------|-------------------------------|
|-------------------------|-------------------------------|
|-------------------------|-------------------------------|


  C5
   |       |   | | |      |      |    |     |         |         |  |           |
   /       /   / / /      /      /    /     /         /         /  /           /

|-----------------------------|----------------------------------------------------|
|-15b18-15--14--13-----13--15-|-13h15p=13\-11h13p11-(11)h13p11s10-11p10----10h11---|
|-------------------15--------|-----------------------------------------12---------|
|-----------------------------|----------------------------------------------------|
|-----------------------------|----------------------------------------------------|
|-----------------------------|----------------------------------------------------|


  F5                                     C5
   |                                      |
   /                                      /

|----------------10-15--------15-------|-------15----15-------15----15-------15-------|
|-10----10-13b15-------18b20-----18p15-|-18b20----18----18b20----18----18b20----18p15-|
|----12--------------------------------|----------------------------------------------|
|--------------------------------------|----------------------------------------------|
|--------------------------------------|----------------------------------------------|
|--------------------------------------|----------------------------------------------|


  G5(type 2)
   |           |       | |        |            | |  |     ||
   /           /       / /        /            / /  /     //

|-------15----15--------15--15--------|-18b21=====(18)r\-----|
|----------18----18b20---------18p=15-|----------------------|
|-17b19-------------------------------|----------------------|
|-------------------------------------|----------------------|
|-------------------------------------|----------------------|
|-------------------------------------|----------------------|


  G5
  |     |   |  |   |      |    |   |  |   |  |   |      |
  /     /   /  /   /      /    /   /  /   /  /   /      /

|-3-----3------3------3------|-3------3------3------3------|
|---6p3---6p=3---6p=3---6p=3-|---6p=3---6p=3---6p=3---6p=3-|
|----------------------------|-----------------------------|
|----------------------------|-----------------------------|
|----------------------------|-----------------------------|
|----------------------------|-----------------------------|


  C5
  |     |   |  |   |      |    |   |  |   |  |   |      |
  /     /   /  /   /      /    /   /  /   /  /   /      /

|-3-----3------3------3------|-3------3------3------3---------|
|---6p3---6p=3---6p=3---6p=3-|---6p=3---6p=3---6p=3---6p=3----|
|----------------------------|--------------------------------|
|----------------------------|--------------------------------|
|----------------------------|--------------------------------|
|----------------------------|--------------------------------|


  F5                              C5
  |                               |
  /                               /

|-----6-5h6p5-------------------|---------------------------|
|-6s8---------8p6-8-5h6h8-5h6h8-|-6p5---------3-----3-------|
|-------------------------------|-----7p5-5b7---5b7---5b7-5-|
|-------------------------------|---------------------------|
|-------------------------------|---------------------------|
|-------------------------------|---------------------------|


  G5(type 2)
  |     |   |  |   |       |      |   |   | |
  /     /   /  /   /       /      /   /   / /

               ~~
|--------------------|--------------------------|
|--------------------|--------------------------|
|-3h5p3------3-------|--------------------------|
|-------3h5----5p==3-|-5p3---------3------------|
|--------------------|------5-3h5----\3-1-------|
|--------------------|--------------------3-----|


  G5
  |    | |  |  |  |   |     |   |  | | |   |
  /    / /  /  /  /   /     /   /  / / /   /

            ~~~                          PM|
|-------------------|------------------------|
|-------------------|------------------------|
|-------------------|------------------------|
|-------------------|------------------------|
|---------------1---|-3b4==(3)r(3)-1-3-1-----|
|-1b2--1-3-(3)----3-|--------------------3-x-|


  C5
  |   | | | |   |   | ||   |  |  |   |
  /   / / / /   /   / //   /  /  /   /

                PM         ~~~~~~
|-----------------|--------------------|
|-----------------|-3------------------|
|-----------------|-3--------------3---|
|-----3---5-3-----|----5p3h5-(5)-5---5-|
|-3s5---5-----5-3-|--------------------|
|-----------------|--------------------|


  F5                 C5
  |                  |
  /                  /

       ~~~~~~            ~~~~~~
|------------------|-----------------|
|-3----------------|-3---------------|
|-3------------3---|-3-----------3---|
|----5-5-(5)-5---5-|-----5-(5)-5---5-|
|------------------|-----------------|
|------------------|-----------------|


  G5(type 2)
  |         | | |       |       |      |      |    ||
  /         / / /       /       /      /      /    //

|-------------3-----3-------|---3--------------------|
|-----------3-------3-3-----|-3---5b6r(5)b6==(5)r----|
|-5b7==(5)r-----5b7-----5b7-|-----5b6r(5)b6==(5)r----|
|---------------------------|------------------------|
|---------------------------|------------------------|
|---------------------------|------------------------|


  G5
  |   |    | |   |  |   |    ||||| |
  /   /    / /   /  /   /    ///// /

|---3---------------3-|--------------|
|-3---5b6===(5)r--3---|-5b6========5r|
|-----5b6===(5)r------|-5b6========5r|
|---------------------|--------------|
|---------------------|--------------|
|---------------------|--------------|


  C5
   |       |  | |   |     |  | |   ||   |   |       |
   /       /  / /   /     /  / /   //   /   /       /

|-------------------3------|-3--------3-6p3---8b10r(8)p===|
|-(5)b6===(5)--(5)r---6b8--|---6b8--6-------6-------------|
|-(5)b6===(5)--(5)r--------|------------------------------|
|--------------------------|------------------------------|
|--------------------------|------------------------------|
|--------------------------|------------------------------|


  F5                     C5
  |                      |
  /                      /

|-6---8p6-----10b12-10-|-9-8-------8-9-10------------|
|---8-----8p6----------|-----10b12--------10b11r(10)p|
|----------------------|-----------------------------|
|----------------------|-----------------------------|
|----------------------|-----------------------------|
|----------------------|-----------------------------|


  G5(type 2)
  |    | | |     |     |   | |       | |
  /    / / /     /     /   / /       / /

|------------------|------------------10-|
|-8---10---8--10---|-8--10---8-10b12-----|
|---9----9-------9-|-------9-------------|
|------------------|---------------------|
|------------------|---------------------|
|------------------|---------------------|


  G5                                    C5
   |   | | | |   |   | | | | | |    |   |     |  |     |    |     |
   /   / / / /   /   / / / / / /    /   /     /  /     /    /     /

       ~       ~         ~
|-----------------|-------------------|-----------------------------|
|-10---8--10---8--|-10---8--10---8-10-|-8h10-11-10h11p10p8----10----|
|----9-------9----|----9-------9------|--------------------10----10-|
|-----------------|-------------------|-----------------------------|
|-----------------|-------------------|-----------------------------|
|-----------------|-------------------|-----------------------------|


  |   |  |     |     |    |         |
  /   /  /     /     /    /         /

|----------------------------------------|
|-8-----10h11p10----10h11h=13-10h11h=13--|
|---/12----------12----------------------|
|----------------------------------------|
|----------------------------------------|
|----------------------------------------|


  F5                                     C5
   |                                      |
   /                                      /

|-10h12----10h12h13-15p12h13-/17-13h15-|-15h17----/18-15h17-15----15-------15-|
|-------13-----------------------------|-------18--------------18----18b20----|
|--------------------------------------|--------------------------------------|
|--------------------------------------|--------------------------------------|
|--------------------------------------|--------------------------------------|
|--------------------------------------|--------------------------------------|


  G5(type 2)
   |           |     |     |                      |                 |      | |   | |
   /           /     /     /                      /                 /      / /   / /

                                                                             ~~~
|------------------------------------------------------|-x-18b18.5===(18)r-------------|
|-18p15-18p15----15-18p15----15----15------------------|---17b17.5===(17)r--17s=14-----|
|-------------18----------18----18----17b19r(17)p15----|-------------------------------|
|---------------------------------------------------17-|-------------------------------|
|------------------------------------------------------|-------------------------------|
|------------------------------------------------------|-------------------------------|


  G5
   |        |    |    |     |           |
   /        /    /    /     /           /

|--------------------12-13h15p13p12----13p12-|
|----------12h13h=15----------------15-------|
|-12h14h15-----------------------------------|
|--------------------------------------------|
|--------------------------------------------|
|--------------------------------------------|


   |     |     |     |     |     |           |
   /     /     /     /     /     /           /

|-------12------------------------------------------|
|-15-13----15p13-12-15-13p12----14p13p12----15p14p==|
|----------------------------15----------14---------|
|---------------------------------------------------|
|---------------------------------------------------|
|---------------------------------------------------|


  C5
   |           |     |     |     |         |
   /           /     /     /     /         /

|-----------------------------------------------|
|-13p12-------12p10-------10--------------------|
|-------14p12-------12p10----12p10s9-12p10p9----|
|--------------------------------------------12-|
|-----------------------------------------------|
|-----------------------------------------------|


   |    |    |     |    |         |                 |
   /    /    /     /    /         /                 /

|--------------------------------------------------------|
|--------------------------------------------------------|
|-10p9-------9-------------------------------------------|
|------12-10---12p10-9-12-10b11r(10)----10b12r(10)----10-|
|------------------------------------13------------13----|
|--------------------------------------------------------|


  F5                         C5
   |                          |
   /                          /

       PM|       PM|     PM
|--------------------------|-------------------------------------|
|--------------------------|-------------------------------------|
|--------------------------|-------------------------------------|
|-10--------10--------10-0-|-------------------15h16h17-15h16h17-|
|--------------------------|-15h16h17-15h16h17-------------------|
|-----10-10-----10-10------|-------------------------------------|


  G5(type 2)
  |             |      |       |                   |              |       |       |     |  |
  /             /      /       /                   /              /       /       /     /  /

|---------------------------------------------------------|-----------15-----------------------|
|-----------------------------15h16h17----------15h=16h17-|-16h17h=18----18b20==(18)r----------|
|-3h16h17-----------15h=16h17----------15h16h17-----------|------------------------------------|
|---------15h16h=17---------------------------------------|------------------------------------|
|---------------------------------------------------------|----------------------------15\-----|
|---------------------------------------------------------|------------------------------------|


  G5
  |     | |   | |     |     | |   | |   | |     |
  /     / /   / /     /     / /   / /   / /     /

  PM-------------------------------------------------
|-------------------------|-------------------------|
|-------------------------|-------------------------|
|-------------------------|-------------------------|
|-------------------------|-------------------------|
|-------------------------|-------------------------|
|-3-1-2-3-1-2-3-1-2-3-1-2-|-3-1-2-3-1-2-3-1-2-3-1-2-|


  C5
  |     |   |  |   |      |    |   |  |   |  |   |      |
  /     /   /  /   /      /    /   /  /   /  /   /      /

 --------------------------------------------------------|
|----------------------------|------------------------------|
|----------------------------|------------------------------|
|----------------------------|------------------------------|
|-3-4-5-3-4--5-3-4--5-3-4--5-|-3-4--5-3-4--5-3-4--5-3-4--5--|
|----------------------------|------------------------------|
|----------------------------|------------------------------|


  F5                     C5
  |                       |
  /                       /

  PM--|   ~~~~~~
|----------------------|----------------------|
|----------------------|----------------------|
|-------3--------3b4===|=(3)r----5b6r(5)p3h5--|
|-3-4-5---5-(5)--------|----------------------|
|----------------------|----------------------|
|----------------------|----------------------|


  G5(type 2)
   |      |||   |       |   | |  |      |
   /      ///   /       /   / /  /      /

|-------------------|--------------------------|
|-------------------|--------------------------|
|-(5)b7========(5)r-|-5-3-5---3--3b3.5===(3)r--|
|-------------------|-------5------------------|
|-------------------|--------------------------|
|-------------------|--------------------------|


  G5
  |  |||| |   |    | |  |  |  |        |
  /  //// /   /    / /  /  /  /        /

  ~
|----------|-----------12----------------|
|----------|--------15----15-12----------|
|----------|-14b16--------------14b16-14-|
|-5--------|-----------------------------|
|----------|-----------------------------|
|----------|-----------------------------|


  C5
   |     |  |  | |    |    |     |  |  |   |   |     |
   /     /  /  / /    /    /     /  /  /   /   /     /

               ~~                      ~~~~~~~
|-----------------------|------------------------------|
|-----------------------|------------------------------|
|-12----14----12--12-12-|-14p12----12-12-(12)-12-14-12-|
|----14----14-----------|-------14---------------------|
|-----------------------|------------------------------|
|-----------------------|------------------------------|


  F5                                    C5
   |                                     |
   /                                     /

|-------------------------------------|------------------------------|
|--------------12-15------------------|---------------------13-14-15-|
|-14b16==(14)r-------14b16r(14)-12----|-14----12-14-(14)b15----------|
|----------------------------------14-|----14------------------------|
|-------------------------------------|------------------------------|
|-------------------------------------|------------------------------|


  G5(type 2)
   |        |  |     |           |       |        |  |        |     |
   /        /  /     /           /       /        /  /        /     /

|----------------------------------|------------------------------------------|
|-------13-15-------13-15-------13-|-15-------13-15-------13-15p13-------13---|
|-14b15-------14b15-------14b15----|----14b15-------14b15----------15b16------|
|----------------------------------|------------------------------------------|
|----------------------------------|------------------------------------------|
|----------------------------------|------------------------------------------|


  G5
   |              |     |        |     |              |
   /              /     /        /     /              /

|-------------------------------------------------------------|
|-15p13-------13-15p13-------13-15p13-------13-15-13-------13-|
|-------15b16----------15b16----------15b16----------15b16----|
|-------------------------------------------------------------|
|-------------------------------------------------------------|
|-------------------------------------------------------------|


   |     |        |     |        |     |              |
   /     /        /     /        /     /              /

|-------------------------------------------------------------|
|-15p13-------13-15p13-------13-15p13-------13-15-13-------13-|
|-------15b16----------15b16----------15b16----------15b16----|
|-------------------------------------------------------------|
|-------------------------------------------------------------|
|-------------------------------------------------------------|


  C5
   |              |     |        |     |              |
   /              /     /        /     /              /

|-------------------------------------------------------------|
|-15p13-------13-15p13-------13-15p13-------13-15-13-------13-|
|-------15b16----------15b16----------15b16----------15b16----|
|-------------------------------------------------------------|
|-------------------------------------------------------------|
|-------------------------------------------------------------|


   |     |        |     |        |     |              |
   /     /        /     /        /     /              /

|-------------------------------------------------------------|
|-15p13-------13-15p13-------13-15p13-------13-15-13-------13-|
|-------15b16----------15b16----------15b16----------15b16----|
|-------------------------------------------------------------|
|-------------------------------------------------------------|
|-------------------------------------------------------------|


 Slower - Free Time
  F5                                  C5
   |                                   |
   /                                   /

|----------------------------------------------------------------------------:
|-15b17-13h15p13s12-13-12h13p12-------12-------------------------------------:
|-------------------------------14p12----14b16r(14)p12----14p12--------------:
|------------------------------------------------------14-------12h14-12b14==:
|----------------------------------------------------------------------------:
|----------------------------------------------------------------------------:


  G5
    |
    /

|------------------------:
|------------------------:
|------------------------:
|-(12)r=(12)--(12)---5b6-:
|------------------------:
|------------------------:


  G5
  |
  /

|-------------------------------------------------------------------:
|-------------------------------------------------------------------:
|-5b6r(5)p3-5p3---5b6r(5)p3---5---3b3.5---3b3.5---------------------:
|---------------5-----------5---5-------5-------5-3-----------------:
|---------------------------------------------------5-4-3-3b4r(3)-1-:
|-------------------------------------------------------------------:


                                                        G5
                                                        |
                                                        /

         ~~~~~~~~~~~
|-----------------------:---------------:-------------:-----------*|
|-----------------------:---------------:-------------:-----------*|
|---------------------3-:-(3)b4=========:=(3)r--------:-----------*|
|-------/5-(5)--(5)-----:---------------:-------------:-5\--------*|
|-3-2-1-----------------:---------------:-------------:-5\--------*|
|-----------------------:---------------:-------------:-3\--------*|


Tablature Legend
----------------
 h   - hammer-on
 p   - pull-off
 b   - bend
 pb  - pre-bend
 r   - bend release (if no number after the r, then release immediately)
 /\  - slide into or out of (from/to "nowhere")
 s   - legato slide
 S   - shift slide
  - natural harmonic
[n]  - artificial harmonic
n(n) - tapped harmonic
 ~   - vibrato
 tr  - trill
 T   - tap
 TP  - trem. picking
 PM  - palm muting
\n/  - tremolo bar dip; n = amount to dip
 \n  - tremolo bar down
 n/  - tremolo bar up
/n\  - tremolo bar inverted dip
 =   - hold bend; also acts as connecting device for hammers/pulls
 <>  - volume swell (louder/softer)
 x   - on rhythm slash represents muted slash
 o   - on rhythm slash represents single note slash

Misc Legend
-----------
 |  - bar
||  - double bar
||o - repeat start
o|| - repeat end
*|  - double bar (ending)
 :  - bar (freetime)
 $  - Segno
 &  - Coda
Tempo markers -  = BPM(8/16=s8/s16), where s8 = swing 8ths, s16 = swing 16ths


***************************************************************************************
***************************************************************************************





Comments


Popular Guns N Roses tabs & chords
Dead Horse Chords
Don't Cry Chords
Breakdown Tabs
Civil War Tabs
Double Talkin' Jive 2 Tabs
Madagascar Tabs
Patience 6 Tabs
Sweet Child Of Mine Tabs
The Godfather Theme 3 Tabs
Attitude Ukulele


Song lyrics



↑ Back to top | Tablatures and chords are parodies/interpretations of the original songs. You may use it for private study, scholarship, research or language learning purposes only
© 2014 AZChords.com Contact us | Privacy policy | DMCA | Add/correct tabs | Request tabs | Top 50 tabs