>
 >
Out Ta Get Me 2

Out Ta Get Me 2 Bass Tabs

Guns N Roses - Out Ta Get Me 2 chords, tabs, tablatures, lyrics

Guitar lessons | Add/correct | Request | Top 50 tabs Artists:  A B C D E F G H I J K L M N O P Q R S T U V W X Y Z 0-9

Out Ta Get Me 2 Bass Tabs – Guns N Roses

CD, Sheet music, Poster

Do you like Out Ta Get Me 2? Share with your friends now
Bass TabsBass Tabs v2ChordsTabsTabs v2
-------------------------------------------------------------------------------
			     Out Ta Get Me - Guns N Roses
-------------------------------------------------------------------------------


Tuning: Eb Ab Db Gb

Note: The vibrato symbol used (~) doesn't necessarily mean vibrato here, but 
rather hold the note until the next one.
Intro:

Note: Start with the drums.

Gb|---------------------------------------------------------------------------|
Db|--------------------------------------------------------5-5-5-5-5-3--------|
Ab|--------------------------------------------------------------------5-3----|
Eb|------3----3----3----3----3----3----3----3----3----3-----------------------|

Gb|---------------------------------------------------------------------------|
Db|---------------------------------------------------------------------------|
Ab|--------1---------------3-x-1------1---------------3-x-1-------------------|
Eb|------3---3--3--1-3-3-x----------3---3--3--1-3-3-x-------------------------|

Gb|---------------------------------------------------------------------------|
Db|---------------------------------------------------------------------------|
Ab|--------1---------------3-x-1------1---------------3-x-1-------------------|
Eb|------3---3--3--1-3-3-x----------3---3--3--1-3-3-x-------------------------|

Verse:

Gb|---------------------------------------------------------------------------|
Db|---------------------------------------------------------------------------|
Ab|---------------------------3~-x-1~-----------------------3~-x-1~-----------|
Eb|-----0-1-2-3-3-3-3-3-3-3-3---------0-1-2-3-3-3-3-3-3-3-3-------------------|

Gb|---------------------------------------------------------------------------|
Db|---------------------------------------------------------------------------|
Ab|---------------------------3~-x-1~-----------------------3~-x-1~--2--3--4--|
Eb|-----0-1-2-3-3-3-3-3-3-3-3---------0-1-2-3-3-3-3-3-3-3-3-------------------|

Pre Chorus:

Gb|---------------------------------------------------------------------------|
Db|---------------------------------------------------------------------------|
Ab|----5-5-5-5-5-5-5-5-5-5-5-5-5-5-5-5---3-3-3-3-3-3-3-3-3-3-3-3-3-3-3-3------|
Eb|---------------------------------------------------------------------------|

Gb|---------------------------------------------------------------------------|
Db|---------------------------------------------------------------------------|
Ab|----5-5-5-5-5-5-5-5-5-5-5-5-5-5-5-5---3-3-3-3-3-3-3-3-3-3-3-3-3-3-3-3------|
Eb|---------------------------------------------------------------------------|

Gb|---------------------------------------------------------------------------|
Db|---------------------------------------------------------------------------|
Ab|----5-5-5-5-5-5-5-5-5-5-5-5-5-5-5-5---3-3-3-3-3-3-3-3-3-3-3-3-3-3-3-3------|
Eb|---------------------------------------------------------------------------|

Gb|---------------------------------------------------------------------------|
Db|---------------------------------------------------------------------------|
Ab|----5-5-5-5-5-5-5-5-5-5-5-5-5-5-5-5---3-3-3-3-3-3-3-3-1-1-1-1-1-1-1-1------|
Eb|---------------------------------------------------------------------------|

Chorus:

Gb|---------------------------------------------------------------------------|
Db|---------------------------------------------------------------------------|
Ab|--------1---------------3-x-1------1---------------3-x-1-------------------|
Eb|------3---3--3--1-3-3-x----------3---3--3--1-3-3-x-------------------------|

Gb|---------------------------------------------------------------------------|
Db|---------------------------------------------------------------------------|
Ab|--------1---------------3-x-1------1---------------3-x-1-------------------|
Eb|------3---3--3--1-3-3-x----------3---3--3--1-3-3-x-------------------------|

Verse:

Gb|---------------------------------------------------------------------------|
Db|---------------------------------------------------------------------------|
Ab|---------------------------3~-x-1~-----------------------3~-x-1~-----------|
Eb|-----0-1-2-3-3-3-3-3-3-3-3---------0-1-2-3-3-3-3-3-3-3-3-------------------|

Gb|---------------------------------------------------------------------------|
Db|---------------------------------------------------------------------------|
Ab|---------------------------3~-x-1~-----------------------3~-x-1~--2--3--4--|
Eb|-----0-1-2-3-3-3-3-3-3-3-3---------0-1-2-3-3-3-3-3-3-3-3-------------------|

Pre Chorus:

Gb|---------------------------------------------------------------------------|
Db|---------------------------------------------------------------------------|
Ab|----5-5-5-5-5-5-5-5-5-5-5-5-5-5-5-5---3-3-3-3-3-3-3-3-3-3-3-3-3-3-3-3------|
Eb|---------------------------------------------------------------------------|

Gb|---------------------------------------------------------------------------|
Db|---------------------------------------------------------------------------|
Ab|----5-5-5-5-5-5-5-5-5-5-5-5-5-5-5-5---3-3-3-3-3-3-3-3-3-3-3-3-3-3-3-3------|
Eb|---------------------------------------------------------------------------|

Gb|---------------------------------------------------------------------------|
Db|---------------------------------------------------------------------------|
Ab|----5-5-5-5-5-5-5-5-5-5-5-5-5-5-5-5---3-3-3-3-3-3-3-3-3-3-3-3-3-3-3-3------|
Eb|---------------------------------------------------------------------------|

Gb|---------------------------------------------------------------------------|
Db|---------------------------------------------------------------------------|
Ab|----5-5-5-5-5-5-5-5-5-5-5-5-5-5-5-5---3-3-3-3-3-3-3-3-1-1-1-1-1-1-1-1------|
Eb|---------------------------------------------------------------------------|

Chorus:

Gb|---------------------------------------------------------------------------|
Db|---------------------------------------------------------------------------|
Ab|--------1---------------3-x-1------1---------------3-x-1-------------------|
Eb|------3---3--3--1-3-3-x----------3---3--3--1-3-3-x-------------------------|

Gb|---------------------------------------------------------------------------|
Db|---------------------------------------------------------------------------|
Ab|--------1---------------3-x-1------1---------------3-x-1-0-2-0-3-----------|
Eb|------3---3--3--1-3-3-x----------3---3--3--1-3-3-x-------------------------|

Guitar Solo:

Gb|---------------------------------------------------------------------------|
Db|---------------------------------------------------------------------------|
Ab|----3-3-3-3-3-3-3-3-3-3-3-3-3-3-3-3-0--------------------------------------|
Eb|--------------------------------------3-3-3-3-3-3-3-3-3-3-3-3-3-3-3-3------|

Gb|---------------------------------------------------------------------------|
Db|---------------------------------------------------------------------------|
Ab|----3-3-3-3-3-3-3-3-3-3-3-3-3-3-3-3-0--------------------------------------|
Eb|--------------------------------------3-3-3-3-3-3-3-3-3-3-3-3-3-3-3-3------|

Gb|---------------------------------------------------------------------------|
Db|---------------------------------------------------------------------------|
Ab|----3-3-3-3-3-3-3-3-3-3-3-3-3-3-3-3-0--------------------------------------|
Eb|--------------------------------------3-3-3-3-3-3-3-3-3-3-3-3-3-3-3-3------|

Gb|---------------------------------------------------------------------------|
Db|---------------------------------------------------------------------------|
Ab|----3-3-3-3-3-3-3-3-3-3-3-3-3-3-3-3-0-5-5-5-5-5-5-5-5-5-5-5-5-5-5-5-5------|
Eb|---------------------------------------------------------------------------|

Gb|---------------------------------------------------------------------------|
Db|---------------------------------------------------------------------------|
Ab|-------------------5-x-3------3---------------5-x-3------------------------|
Eb|----3-5~-5-3-5-5-x----------5---5--5--3-5-5-x------------------------------|

Gb|---------------------------------------------------------------------------|
Db|---------------------------------------------------------------------------|
Ab|------3---------------5-x-3------3---------------5-x-3---------------------|
Eb|----5---5--5--3-5-5-x----------5---5--5--3-5-5-x---------------------------|

Bridge:

Gb|---------------------------------------------------------------------------|
Db|---------------------------------------------------------------------------|
Ab|---------------------------------------------------------------------------|
Eb|---0-1-2-3-----3-----3-----3-----0-1-2-3-----3-----3-----3-----------------|

Gb|---------------------------------------------------------------------------|
Db|------------------------------------------------------5-5-5-5-5-3----------|
Ab|------------------------------------------------------------------5-3------|
Eb|---0-1-2-3-----3-----3-----3-----0-1-2-3-----3-----3-----------------------|

Gb|---------------------------------------------------------------------------|
Db|---------------------------------------------------------------------------|
Ab|---------------------------------------------------------------------------|
Eb|---3-3-3-3-3-3-3-3-3-3-3-3-3-3-3-0-1-2-3-3-3-3-3-3-3-3-3-3-3-3-3-3-3-3-----|

Gb|---------------------------------------------------------------------------|
Db|-------------------------------------------------5-5-5-5-5-5-5-5-5-5-------|
Ab|---------------------------------------------------------------------------|
Eb|---0-1-2-3-3-3-3-3-3-3-3-3-3-3-3-3-3-0-1-2-3-3-3---------------------------|

Verse:

Gb|---------------------------------------------------------------------------|
Db|---------------------------------------------------------------------------|
Ab|-------------------5-x-3------3---------------5-x-3------------------------|
Eb|----5~---5-3-5-5-x----------5---5--5--3-5-5-x------------------------------|

Gb|---------------------------------------------------------------------------|
Db|--------------------------------------------------5-5-5-5-5-3--------------|
Ab|------3---------------5-x-3------3----------------------------5-3----------|
Eb|----5---5--5--3-5-5-x----------5---5--5--3-5-5-x---------------------------|

Chorus/Outro:

Gb|---------------------------------------------------------------------------|
Db|---------------------------------------------------------------------------|
Ab|--------1---------------3-x-1------1---------------3-x-1-------------------|
Eb|------3---3--3--1-3-3-x----------3---3--3--1-3-3-x-------------------------|

Gb|---------------------------------------------------------------------------|
Db|----------------------------------------------------5-5-5-5-5-5-5----------|
Ab|--------1---------------3-x-1------1---------------------------------------|
Eb|------3---3--3--1-3-3-x----------3---3--3--1-3-3-x-------------------------|

Gb|---------------------------------------------------------------------------|
Db|---------------------------------------------------------------------------|
Ab|-------------------------3-x-1--------------------3-x-1--------------------|
Eb|------0-1-2-3~-3--3--3-x-------0-1-2-3~-3--3--3-x--------------------------|

Gb|---------------------------------------------------------------------------|
Db|---------------------------------------------------------------------------|
Ab|-------------------------3-x-1--------------------3~---1~------------------|
Eb|------0-1-2-3~-3--3--3-x-------0-1-2-3~-3--3--3-x-----------3~-------------|


The End.

| /  slide up
| \  slide down
| h  hammer-on
| p  pull-off
| ~  vibrato
| +  harmonic
| x  Mute note
===============================================================================





Comments


Popular Guns N Roses tabs & chords
Mr Brownstone Bass Tabs
Black Leather Chords
Coma Chords
Wild Horses 2 Chords
Jonny Came Marching Home Tabs
Knockin On Heavens Door 3 Tabs
New Rose Tabs
Shotgun Blues 3 Tabs
Sorry Tabs
Nightrain Ukulele


Song lyrics



↑ Back to top | Tablatures and chords are parodies/interpretations of the original songs. You may use it for private study, scholarship, research or language learning purposes only
© 2014 AZChords.com Contact us | Privacy policy | DMCA | Add/correct tabs | Request tabs | Top 50 tabs