» » »

Guns N Roses, Out Ta Get Me Bass tabs (ver.1)

Artists:  A B C D E F G H I J K L M N O P Q R S T U V W X Y Z # 

Out Ta Get Me Bass tabs (ver.1)

Guns N Roses Tabs
 Rating:
4/5 (4 votes)
Out Ta Get Me lessons Tabs too difficult? Try these video lessons and learn fast
1
                GUNS N' ROSES - Outta Get Me from "Appetite For Destruction"

G|------------------------------------------|
D|------------------------------------------|
A|--0-----2-0-0--------22200-0--------22200-|
E|-2-2-0-2---2-22220022-----2-22220022------|

G|-----------------------------------------------------------------|
D|-----------------------------------------------------------------|
A|--0--------222-1-2-3-4444444444444444---2222222222222222---44444-|
E|-2-22220022--------------------------0-2----------------0-2------|

G|----------------------------------|--------------------------------|
D|----------------------------------|--------------------------------|
A|-2222222222222222-----------------|-------------442-2--------442-2-|
E|-----------------4444444444444444-|-0-3-44442444---4-44442444---4--|
            
Submit corrections

comments powered by Disqus
↑ Back to top | Guns N Roses Bass for Out Ta Get Me. Lyrics for acoustic guitar and electric guitar. 1 Tablatures and chords are parodies/interpretations of the original songs. You may use it for private study, scholarship, research or language learning purposes only