>
 >
Oh My God 2

Oh My God 2 Guitar Tabs

Guns N Roses - Oh My God 2 chords, tabs, tablatures, lyrics

Guitar lessons | Add/correct | Request | Top 50 tabs Artists:  A B C D E F G H I J K L M N O P Q R S T U V W X Y Z 0-9

Oh My God 2 Guitar Tabs – Guns N Roses

CD, Sheet music, Poster

Do you like Oh My God 2? Share with your friends now
Bass TabsTabsTabs v2
Track: Chinese Democracy

Lead Gtr:

D||------|------|------|------------------------------|
A||------|------|------|------------------------17----|
F||------|------|------|----15--14--12--14--12--------|
C||------|------|------|------------------------------|
G||------|------|------|------------------------------|
D||------|------|------|------------------------------|

-------------------------|-----------------------|
-------------------------|-----------------------|
-------------------------|-----------------------|
--2----2--x--2--5--5--x--|--7----7----x--7--8----|
--2----2--x--2--5--5--x--|--7----7----x--7--8----|
--0----0--x--0--3--3--x--|--5----5----5--5--6----|

-------------------------|-------------------------|
-------------------------|-------------------------|
-------------------------|-------------------------|
--2----2--x--2--5--5--x--|--7--7--7--7--7--7--8----|
--2----2--x--2--5--5--x--|--7--7--7--7--7--7--8----|
--0----0--x--0--3--3--x--|--5--5--5--5--5--5--6----|

-------------------------|-----------------------|
-------------------------|-----------------------|
-------------------------|-----------------------|
--2----2--x--2--5--5--x--|--7----7----x--7--8----|
--2----2--x--2--5--5--x--|--7----7----x--7--8----|
--0----0--x--0--3--3--x--|--5----5----5--5--6----|

-------------------------|--------------------------|------|------|------|
-------------------------|--------------------------|------|------|------|
-------------------------|--------------------------|------|------|------|
--2----2--x--2--5--5--x--|--7--7--7--7--7--5--5--5--|------|------|------|
--2----2--x--2--5--5--x--|--7--7--7--7--7--5--5--5--|------|------|------|
--0----0--x--0--3--3--x--|--5--5--5--5--5--3--3--3--|------|------|------|

------|------|------|------|------|-------12------------|
------|------|------|------|------|--8------------------|
------|------|------|------|------|---------------------|
------|------|------|------|------|---------------------|
------|------|------|------|------|---------------------|
------|------|------|------|------|---------------------|

--------------------|-------12------------|--------------------|
--10~---------------|--8------------------|--10~---------------|
--------------------|---------------------|--------------------|
--------------------|---------------------|--------------------|
--------------------|---------------------|--------------------|
--------------------|---------------------|--------------------|

-------12------------|------------------------|-------12------------|
--8------------------|--10~---------8--10h-8--|--8------------------|
---------------------|------------------------|---------------------|
---------------------|------------------------|---------------------|
---------------------|------------------------|---------------------|
---------------------|------------------------|---------------------|

--------------------|-------------------------|-----------------------|
--10~---------------|-------------------------|-----------------------|
--------------------|-------------------------|-----------------------|
--------------------|--2----2--x--2--5--5--x--|--7----7----x--7--8----|
--------------------|--2----2--x--2--5--5--x--|--7----7----x--7--8----|
--------------------|--0----0--x--0--3--3--x--|--5----5----5--5--6----|

-------------------------|-------------------------|
-------------------------|-------------------------|
-------------------------|-------------------------|
--2----2--x--2--5--5--x--|--7--7--7--7--7--7--8----|
--2----2--x--2--5--5--x--|--7--7--7--7--7--7--8----|
--0----0--x--0--3--3--x--|--5--5--5--5--5--5--6----|

-------------------------|-----------------------|------------------------|
-------------------------|-----------------------|------------------------|
-------------------------|-----------------------|--4----4--4--5----5--5--|
--2----2--x--2--5--5--x--|--7----7----x--7--8----|--4----4--4--5----5--5--|
--2----2--x--2--5--5--x--|--7----7----x--7--8----|--2----2--2--3----3--3--|
--0----0--x--0--3--3--x--|--5----5----5--5--6----|------------------------|

------------------------|----------------------------------|
------------------------|----------------------------------|
----------7----7--7--7--|--11--11--11--11--11--11--11--11--|
--5----5--7----7--7--7--|--11--11--11--11--11--11--11--11--|
--5----5--5----5--5--5--|--9---9---9---9---9---9---9---9---|
--3----3----------------|----------------------------------|

---------------------|----------|------------x--x--x--|
---------------------|----------|------------x--x--x--|
--12--12----7--------|----------|------------x--x--x--|
--12--12----7--------|----------|---------------------|
--10--10----5--------|----------|---------------------|
---------------------|----------|---------------------|

-------12------------|--x----------x--x--x--|-------12------------|
--8------------------|-------------x--x--x--|--8------------------|
---------------------|-------------x--x--x--|---------------------|
---------------------|----------------------|---------------------|
---------------------|----------------------|---------------------|
---------------------|----------------------|---------------------|

------------------------|-------12------------|------------------|
--10~---------8--10--8--|--8------------------|------------------|
------------------------|---------------------|------------------|
------------------------|---------------------|------------------|
------------------------|---------------------|------------------|
------------------------|---------------------|------------------|

----------------------|-------------------|----------------------|
----------------------|-------------------|----------------------|
--4~---------2--4--2--|--2~---------------|--4~---------2--4--2--|
----------------------|-------------------|----------------------|
----------------------|-------------------|----------------------|
----------------------|-------------------|----------------------|

-------------------|----------------------|-------------------|
-------------------|----------------------|-------------------|
--2~---------------|--4~---------2--4--2--|--2~---------------|
-------------------|----------------------|-------------------|
-------------------|----------------------|-------------------|
-------------------|----------------------|-------------------|

--------------------|--------------------|--------------------|
--------------------|--------------------|--------------------|
--4~-------5~-------|---------7~---------|--11~---------------|
--------------------|--5-----------------|--------------------|
--------------------|--------------------|--------------------|
--------------------|--------------------|--------------------|

---------------------|----------------------|----------------------|
---------------------|----------------------|----------------------|
--12~-----7~---------|--16--------17--------|----------19----------|
---------------------|----------------------|--17------------------|
---------------------|----------------------|----------------------|
---------------------|----------------------|----------------------|

--------------------------|------------22~---------|--19h-----17~---------|
--------------------------|------------------------|----------------------|
--23--23----23~-----23----|--24--24----------------|----------------------|
--------------------------|------------------------|----------------------|
--------------------------|------------------------|----------------------|
--------------------------|------------------------|----------------------|

--19~-----------18b---|--18b-----15--17----------|--15----------19~-------|
----------------------|--------------------17----|----------17------------|
----------------------|--------------------------|------------------------|
----------------------|--------------------------|------------------------|
----------------------|--------------------------|------------------------|
----------------------|--------------------------|------------------------|

--18~-----17~---------|--15~-------------------|--15~-------------------|
----------------------|--------17~-------15----|--------17~-------15----|
----------------------|------------------------|------------------------|
----------------------|------------------------|------------------------|
----------------------|------------------------|------------------------|
----------------------|------------------------|------------------------|

--15~-------15--17--18--22~---|------------------|------|------|------|
--------17--------------------|------------------|------|------|------|
------------------------------|------------------|------|------|------|
------------------------------|------------------|------|------|------|
------------------------------|------------------|------|------|------|
------------------------------|------------------|------|------|------|

------|------|------|------|---------------------|------------------------|
------|------|------|------|---------------------|------------------------|
------|------|------|------|--9------11b---------|--12------14b-----------|
------|------|------|------|---------------------|------------------12----|
------|------|------|------|---------------------|------------------------|
------|------|------|------|---------------------|------------------------|

---------------------|------------------------|---------------------|
---------------------|------------------------|---------------------|
--9------11b---------|--12------14b-----------|--9b-----11b---------|
---------------------|------------------12----|---------------------|
---------------------|------------------------|---------------------|
---------------------|------------------------|---------------------|

------------------------|------------------------|----------------------|
------------------------|------------------------|--13b-----15b---------|
--12b-----14b-----------|--14b-----16b-----------|----------------------|
------------------12----|------------------------|----------------------|
------------------------|------------------------|----------------------|
------------------------|------------------------|----------------------|

----------------------|----------17b---------|--19b---------------|
--17b-----19b---------|--20b-----------------|--------------------|
----------------------|----------------------|--------------------|
----------------------|----------------------|--------------------|
----------------------|----------------------|--------------------|
----------------------|----------------------|--------------------|

--20------15----------|----------||
----------------------|----------||
----------------------|----------||
----------------------|----------||
----------------------|----------||
----------------------|----------||

Rhythm Guitar:

D||-------------------------|-----------------------|
A||-------------------------|-----------------------|
F||-------------------------|-----------------------|
C||--2----2--x--x--5--5--x--|--7----7----x--7--8----|
G||--2----2--x--x--5--5--x--|--7----7----x--7--8----|
D||--0----0--x--0--3--3--x--|--5----5----5--5--6----|

-------------------------|-------------------------|
-------------------------|-------------------------|
-------------------------|-------------------------|
--2----2--x--x--5--5--x--|--7--7--7--7--7--7--8----|
--2----2--x--x--5--5--x--|--7--7--7--7--7--7--8----|
--0----0--x--0--3--3--x--|--5--5--5--5--5--5--6----|

-------------------------|-----------------------|
-------------------------|-----------------------|
-------------------------|-----------------------|
--2----2--x--x--5--5--x--|--7----7----x--7--8----|
--2----2--x--x--5--5--x--|--7----7----x--7--8----|
--0----0--x--0--3--3--x--|--5----5----5--5--6----|

-------------------------|-------------------------|
-------------------------|-------------------------|
-------------------------|-------------------------|
--2----2--x--x--5--5--x--|--7--7--7--7--7--7--8----|
--2----2--x--x--5--5--x--|--7--7--7--7--7--7--8----|
--0----0--x--0--3--3--x--|--5--5--5--5--5--5--6----|

-------------------------|-----------------------|
-------------------------|-----------------------|
-------------------------|-----------------------|
--2----2--x--x--5--5--x--|--7----7----x--7--8----|
--2----2--x--x--5--5--x--|--7----7----x--7--8----|
--0----0--x--0--3--3--x--|--5----5----5--5--6----|

-------------------------|--------------------------|------|------|------|
-------------------------|--------------------------|------|------|------|
-------------------------|--------------------------|------|------|------|
--2----2--x--x--5--5--x--|--7--7--7--7--7--5--5--5--|------|------|------|
--2----2--x--x--5--5--x--|--7--7--7--7--7--5--5--5--|------|------|------|
--0----0--x--0--3--3--x--|--5--5--5--5--5--3--3--3--|------|------|------|

------|------|------|------|------|------|------|------|------|------|
------|------|------|------|------|------|------|------|------|------|
------|------|------|------|------|------|------|------|------|------|
------|------|------|------|------|------|------|------|------|------|
------|------|------|------|------|------|------|------|------|------|
------|------|------|------|------|------|------|------|------|------|

------|------|------|-------------------------|-----------------------|
------|------|------|-------------------------|-----------------------|
------|------|------|-------------------------|-----------------------|
------|------|------|--2----2--x--x--5--5--x--|--7----7----x--7--8----|
------|------|------|--2----2--x--x--5--5--x--|--7----7----x--7--8----|
------|------|------|--0----0--x--0--3--3--x--|--5----5----5--5--6----|

-------------------------|-------------------------|
-------------------------|-------------------------|
-------------------------|-------------------------|
--2----2--x--x--5--5--x--|--7--7--7--7--7--7--8----|
--2----2--x--x--5--5--x--|--7--7--7--7--7--7--8----|
--0----0--x--0--3--3--x--|--5--5--5--5--5--5--6----|

-------------------------|-----------------------|------------------------|
-------------------------|-----------------------|------------------------|
-------------------------|-----------------------|--4----4--4--5----5--5--|
--2----2--x--x--5--5--x--|--7----7----x--7--8----|--4----4--4--5----5--5--|
--2----2--x--x--5--5--x--|--7----7----x--7--8----|--2----2--2--3----3--3--|
--0----0--x--0--3--3--x--|--5----5----5--5--6----|------------------------|

------------------------|----------------------------------|
------------------------|----------------------------------|
----------7----7--7--7--|--11--11--11--11--11--11--11--11--|
--5----5--7----7--7--7--|--11--11--11--11--11--11--11--11--|
--5----5--5----5--5--5--|--9---9---9---9---9---9---9---9---|
--3----3----------------|----------------------------------|

---------------------|------|------|------|------|------|------|------|
---------------------|------|------|------|------|------|------|------|
--12--12----7--------|------|------|------|------|------|------|------|
--12--12----7--------|------|------|------|------|------|------|------|
--10--10----5--------|------|------|------|------|------|------|------|
---------------------|------|------|------|------|------|------|------|

------|-------------------------|-----------------------|
------|-------------------------|-----------------------|
------|-------------------------|-----------------------|
------|--2----2--x--2--5--5--x--|--7----7----x--7--8----|
------|--2----2--x--2--5--5--x--|--7----7----x--7--8----|
------|--0----0--x--0--3--3--x--|--5----5----5--5--6----|

-------------------------|-------------------------|
-------------------------|-------------------------|
-------------------------|-------------------------|
--2----2--x--2--5--5--x--|--7--7--7--7--7--7--8----|
--2----2--x--2--5--5--x--|--7--7--7--7--7--7--8----|
--0----0--x--0--3--3--x--|--5--5--5--5--5--5--6----|

-------------------------|-----------------------|------------------------|
-------------------------|-----------------------|------------------------|
-------------------------|-----------------------|--4----4--4--5----5--5--|
--2----2--x--2--5--5--x--|--7----7----x--7--8----|--4----4--4--5----5--5--|
--2----2--x--2--5--5--x--|--7----7----x--7--8----|--2----2--2--3----3--3--|
--0----0--x--0--3--3--x--|--5----5----5--5--6----|------------------------|

------------------------|----------------------------------|
------------------------|----------------------------------|
----------7----7--7--7--|--11--11--11--11--11--11--11--11--|
--5----5--7----7--7--7--|--11--11--11--11--11--11--11--11--|
--5----5--5----5--5--5--|--9---9---9---9---9---9---9---9---|
--3----3----------------|----------------------------------|

---------------------|------------------------|------------------------|
---------------------|------------------------|------------------------|
--12--12----7--------|--4----4--4--5----5--5--|----------7----7--7--7--|
--12--12----7--------|--4----4--4--5----5--5--|--5----5--7----7--7--7--|
--10--10----5--------|--2----2--2--3----3--3--|--5----5--5----5--5--5--|
---------------------|------------------------|--3----3----------------|

----------------------------------|---------------------|
----------------------------------|---------------------|
--11--11--11--11--11--11--11--11--|--12--12----7--------|
--11--11--11--11--11--11--11--11--|--12--12----7--------|
--9---9---9---9---9---9---9---9---|--10--10----5--------|
----------------------------------|---------------------|

-------------------------|-----------------------|
-------------------------|-----------------------|
-------------------------|-----------------------|
--2----2--x--x--5--5--x--|--7----7----x--7--8----|
--2----2--x--x--5--5--x--|--7----7----x--7--8----|
--0----0--x--0--3--3--x--|--5----5----5--5--6----|

-------------------------|-------------------------|
-------------------------|-------------------------|
-------------------------|-------------------------|
--2----2--x--x--5--5--x--|--7--7--7--7--7--7--8----|
--2----2--x--x--5--5--x--|--7--7--7--7--7--7--8----|
--0----0--x--0--3--3--x--|--5--5--5--5--5--5--6----|

-------------------------|-----------------------|
-------------------------|-----------------------|
-------------------------|-----------------------|
--2----2--x--x--5--5--x--|--7----7----x--7--8----|
--2----2--x--x--5--5--x--|--7----7----x--7--8----|
--0----0--x--0--3--3--x--|--5----5----5--5--6----|

-------------------------|-------------------------|
-------------------------|-------------------------|
-------------------------|-------------------------|
--2----2--x--x--5--5--x--|--7--7--7--7--7--7--8----|
--2----2--x--x--5--5--x--|--7--7--7--7--7--7--8----|
--0----0--x--0--3--3--x--|--5--5--5--5--5--5--6----|

-------------------------|-----------------------|
-------------------------|-----------------------|
-------------------------|-----------------------|
--2----2--x--x--5--5--x--|--7----7----x--7--8----|
--2----2--x--x--5--5--x--|--7----7----x--7--8----|
--0----0--x--0--3--3--x--|--5----5----5--5--6----|

-------------------------|-------------------------|
-------------------------|-------------------------|
-------------------------|-------------------------|
--2----2--x--x--5--5--x--|--7--7--7--7--7--7--8----|
--2----2--x--x--5--5--x--|--7--7--7--7--7--7--8----|
--0----0--x--0--3--3--x--|--5--5--5--5--5--5--6----|

-------------------------|-----------------------|
-------------------------|-----------------------|
-------------------------|-----------------------|
--2----2--x--x--5--5--x--|--7----7----x--7--8----|
--2----2--x--x--5--5--x--|--7----7----x--7--8----|
--0----0--x--0--3--3--x--|--5----5----5--5--6----|

-------------------------|--------------------------|
-------------------------|--------------------------|
-------------------------|--------------------------|
--2----2--x--x--5--5--x--|--7--7--7--7--7--5--5--5--|
--2----2--x--x--5--5--x--|--7--7--7--7--7--5--5--5--|
--0----0--x--0--3--3--x--|--5--5--5--5--5--3--3--3--|

-------------------------|-----------------------|
-------------------------|-----------------------|
-------------------------|-----------------------|
--2----2--x--x--5--5--x--|--7----7----x--7--8----|
--2----2--x--x--5--5--x--|--7----7----x--7--8----|
--0----0--x--0--3--3--x--|--5----5----5--5--6----|

-------------------------|-------------------------|
-------------------------|-------------------------|
-------------------------|-------------------------|
--2----2--x--x--5--5--x--|--7--7--7--7--7--7--8----|
--2----2--x--x--5--5--x--|--7--7--7--7--7--7--8----|
--0----0--x--0--3--3--x--|--5--5--5--5--5--5--6----|

-------------------------|-----------------------|
-------------------------|-----------------------|
-------------------------|-----------------------|
--2----2--x--x--5--5--x--|--7----7----x--7--8----|
--2----2--x--x--5--5--x--|--7----7----x--7--8----|
--0----0--x--0--3--3--x--|--5----5----5--5--6----|

-------------------------|-------------------------|
-------------------------|-------------------------|
-------------------------|-------------------------|
--2----2--x--x--5--5--x--|--7--7--7--7--7--7--8----|
--2----2--x--x--5--5--x--|--7--7--7--7--7--7--8----|
--0----0--x--0--3--3--x--|--5--5--5--5--5--5--6----|

------------------------|------------------------|
------------------------|------------------------|
--4----4--4--5----5--5--|----------7----7--7--7--|
--4----4--4--5----5--5--|--5----5--7----7--7--7--|
--2----2--2--3----3--3--|--5----5--5----5--5--5--|
------------------------|--3----3----------------|

----------------------------------|---------------------|----------||
----------------------------------|---------------------|----------||
--11--11--11--11--11--11--11--11--|--12--12----7--------|----------||
--11--11--11--11--11--11--11--11--|--12--12----7--------|----------||
--9---9---9---9---9---9---9---9---|--10--10----5--------|----------||
----------------------------------|---------------------|----------||





Comments


Popular Guns N Roses tabs & chords
Back Off Bitch Chords
Patience Chords
Street Of Dreams 1 Chords
Sweet Child O Mine Drum Tabs
Blues 1 Tabs
Chinese Democracy 6 Tabs
November Rain Tabs
November Rain 10 Tabs
Only Women Bleed Tabs
Used To Love Her 3 Tabs


Song lyrics



↑ Back to top | Tablatures and chords are parodies/interpretations of the original songs. You may use it for private study, scholarship, research or language learning purposes only
© 2014 AZChords.com Contact us | Privacy policy | DMCA | Add/correct tabs | Request tabs | Top 50 tabs