» » »

Guns N Roses, November Rain Tabs (ver.14)

Artists:  A B C D E F G H I J K L M N O P Q R S T U V W X Y Z # 

November Rain Tabs (ver.14)

Guns N Roses Tabs
 Rating:
4/5 (4 votes)
November Rain lessons Tabs too difficult? Try these video lessons and learn fast
1
                


F                     Dm
When I look into your eyes
                    C
I can see a love restrained
F                  Dm
But darling when I hold you
                          C
Don't you know I feel the same
Dm                  G
Cause nothin' last forever
                            C
And we both know hearts can change
Dm                      G
And it's hard to hold a candle
                     C
In the cold november rain
F                               Dm
We've been through this such a long, long time
                        C
Just tryin' to kill the pain, oh yeah
F
But lovers always come and lovers always go
    Dm                                    C
And no one's really sure who's lettin' go today
Walkin' away
F
If we could take the time to lay it on the line
Dm
I could rest my head
                           C
Just knowin' that you were mine
All mine
Dm                G
So if you want to love me
                   C
Then darlin' don't refrain
Dm                  G
Or I'll just end up walkin'
                     C
In the cold november rain
F                            G
Do you need sometime on your own?
       F                 G
Do you need sometime all alone?
          F                       G
Everybody needs sometime on their own
                   F                 G
Don't you know you need sometime all alone
Em          F                C
I know it's hard to keep and open heart
Em        F                   Dm
When even friends seem out to harm you

           D5                    E5            F5              C5
E|-----------------------------------------------------------------------|
B|--------------3-5-5br-3------------------------------------------------|
G|-------------------------4br~~~----------------------------------------|
D|-----------------------------------------------------------------------|
A|-----------------------------------------------------------------------|
E|-----------------------------------------------------------------------|

Em         F            C
But if you could heal a broken heart

E|----------------------------|
B|----------------------------|
G|-/5~~~~-------4br~~~~--2--0-|
D|----------------------------|
A|----------------------------|
E|----------------------------|
Em       F              G  
Wouldn't time be out to charm you whoo


  Guitar solo 1:
E|-----------8-----------------------------8------------8~~~~~~-------|
B|-b8---r8b----8---r(8)p6--8brbr----r8b------r8--5br~~----------5brbr-|
G|--------------------------------------------------------------------|
D|--------------------------------------------------------------------|
A|--------------------------------------------------------------------|
E|--------------------------------------------------------------------|

E|------------------------------------------------------------------|
B|-5~~----------8------------------------8--------------------------|
G|-----7p5--7/9---9\7--5---b8-------r8b----8--r(8)p6--8brb-----r8b--|
D|------------------------------------------------------------------|
A|------------------------------------------------------------------|
E|------------------------------------------------------------------|

E|-8-8br---10b(hold)-8h10p8----8-------13p12-----13p12----13b---13~~~~--|
B|--------------------------10---11b----------13-------13---------------|
G|----------------------------------------------------------------------|
D|----------------------------------------------------------------------|
A|----------------------------------------------------------------------|
E|----------------------------------------------------------------------|

E|----12--13-12h13p12---------12-13br-13-12-12b-12~~~-20--(20)~~~-|
B|-15-----------------15~~-15-------------------------------------|
G|----------------------------------------------------------------|
D|----------------------------------------------------------------|
A|----------------------------------------------------------------|
E|----------------------------------------------------------------|

E|-19-19--19\17--17\15--15\13--13--13\12--12--12h13p12-----12h13~~~|
B|------------------------------------------------------15---------|
G|-----------------------------------------------------------------|
D|-----------------------------------------------------------------|
A|-----------------------------------------------------------------|
E|-----------------------------------------------------------------|

E|-12-13-12h13p12--------12---------------------------------------------|
B|----------------15p13-----13---15h17p15-15-12h13-12h13p12--------12---|
G|-----------------------------------------------------------14p12------|
D|----------------------------------------------------------------------|
A|----------------------------------------------------------------------|
E|----------------------------------------------------------------------|

E|-------------------------------------------------------------|
B|----10-----------------------------13~~~~--------------13~~~-|
G|-12----10--12--10--9~~~~--12p10\9-----------10h12p10\9-------|
D|-------------------------------------------------------------|
A|-------------------------------------------------------------|
E|-------------------------------------------------------------|

E|--------------------------15--------------------|
B|-------------15b-------------r15---13-----(13)b-|
G|-10h12p10\9-------------------------------------|
D|------------------------------------------------|
A|------------------------------------------------|
E|------------------------------------------------| (end of solo 1)
F                               G
Sometimes I need sometime on my own
      G                         F                 G     
E|------------------------------------------------------------------------|
B|------6b-------6p5----6---5---------------------------------------------|
G|----------------------------5-------------5h7-------------5h7p5---------|
D|-7-5---------------------------7----------------------7----------7------|
A|------------------------------------------------------------------------|
E|------------------------------------------------------------------------|
           F                 G
Sometimes I need sometime all alone ooh
         F                       G
Everybody needs sometime on their own ooh
 F                G
E|-----------------------------------------------------------|
B|-6--5------------------------------------------------------|
G|------5---------------------7--9--10--12--14--16--17--19---|
D|--------7--------------------------------------------------|
A|-----------------------------------------------------------|
E|-----------------------------------------------------------|
                   F                 G 
Don't you know you need sometime all alone


  Guitar solo 2:
E|--------------------------------------20---------------20---------19b-|
B|-----------------------18~~~~~~-20b------r20-----(20)b----18-17~------|
G|-7-9-10-12-14-16-17-19------------------------------------------------|
D|----------------------------------------------------------------------|
A|----------------------------------------------------------------------|
E|----------------------------------------------------------------------|
  
        w/Fill 2.
E|----------------------17--------------------------------------------------|
B|-17b-rb-r----17-18-20----18--20-17-18-20--17br-17-------------------------|
G|----------19--------------------------------------19brp17--19p17-----17---|
D|------------------------------------------------------------------19------|
A|--------------------------------------------------------------------------|
E|--------------------------------------------------------------------------|

E|-----------------------------------------------------------------------|
B|-20---------------20----------------20b--20--18h20p18p17--18-17h18p17--|
G|----17-17------17----17-17-17----17------------------------------------|
D|-----------19-----------------19---------------------------------------|
A|-----------------------------------------------------------------------|
E|-----------------------------------------------------------------------|

E|------------------------------------|
B|-----17------20---------------------|
G|-19-----19b------19---17~~~~--------|
D|------------------------------------|
A|------------------------------------|
E|------------------------------------| (end of solo 2)

F
And when your fears subside
Dm                C
And shadows still remains, oh yeah
F                   Dm
I know that you can love me
                            C
When there's no one left to blame
Dm                G
So never mind the darkness
                    C
We still can find a way
Dm                  G
Cause nothin' lasts forever
                   C 
Even cold november rain


3rd solo
E--2O--------19----- 2O-|-(2O)-------2O--19--2O--15---------15--|
B-----------------------|----------------------------16---------|
G-----------------------|---------------------------------------|
D-----------------------|---------------------------------------|
A-----------------------|---------------------------------------|
E-----------------------|---------------------------------------|

E-16----151615------15----------15-|
B-----------------18---------18----|
G----------------------------------|
D----------------------------------|
A----------------------------------|
E----------------------------------|
                
E---16---15--1615----------------15-------------------------------|
B------------------18-16----16-18----18-16-18-15-16--18-16-15-16--|
G------------------------17---------------------------------------|
D-----------------------------------------------------------------|
A-----------------------------------------------------------------|
E-----------------------------------------------------------------|

E-----------------------------------------------------------------|
B---15-----------------15--16--18--15--16--18---15----------------|
G------------------17-------------------------------17------------|
D-----------------------------------------------------------------|
A-----------------------------------------------------------------|
E-----------------------------------------------------------------|

E-2O-----------------19----------2O-|-(2O)---2O--19--2O--15------15-|
B-----------------------------------|------------------------16-----|
G-----------------------------------|-------------------------------|
D-----------------------------------|-------------------------------|
A-----------------------------------|-------------------------------|
E-----------------------------------|-------------------------------|

E--16-----151615----15---------------|
B-----------------18-------15-16-18--|
G------------------------------------|
D------------------------------------|
A------------------------------------|
E------------------------------------|

E-15-16-151615------15-----15---------------------15-1615----15------|
B-------------18-16---16-18--1816-18-16--15-16-18--------1816---1618-|
G--------------------------------------17----------------------------|
D--------------------------------------------------------------------|
A--------------------------------------------------------------------|
E--------------------------------------------------------------------|

E-15-----------------------------------------------------------------|
B---18-16----15-16-18-15----16-15------------------------------------|
G---------17-------------17-------17-15-17--151315131513-------------|
D---------------------------------------------------------12---------|
A--------------------------------------------------------------------|
E--------------------------------------------------------------------|
           
E---2O-------------19-------------2O-|-(2O)---2O--19-------------15--|
B------------------------------------|----------------15-----------17|
G------------------------------------|-------------------------------|
D------------------------------------|-------------------------------|
A------------------------------------|-------------------------------|
E------------------------------------|-------------------------------|

E---------------------------------|-----2O-(2O)-------2O-15-2O-19-2O-|
B--15-------15------18---------16-|---16-----------------------------|
G---------------17----------------|-17-------------------------------|
D---------------------------------|----------------------------------|
A---------------------------------|----------------------------------|
E---------------------------------|----------------------------------|
                   
E--15--18-16-18-15-1615-------15---------15------15------15-----|
B-------------------------18------16-18------16------16------16-|
G---------------------------------------------------------------|
D---------------------------------------------------------------|
A---------------------------------------------------------------|
E---------------------------------------------------------------|
               
E--2O----------------19----------2O--|-(2O)----2O--19--2O--15----15-|
B------------------------------------|------------------------16----|
G------------------------------------|------------------------------|
D------------------------------------|------------------------------|
A------------------------------------|------------------------------|
E------------------------------------|------------------------------|

E--16------151615---15------------15-|--18--(18)-------15---15------|
B----------------18------------18----|-------------------16---16----|
G------------------------------------|---------------------------17-|
D------------------------------------|------------------------------|
A------------------------------------|------------------------------|
E------------------------------------|------------------------------|

E-----------------------------------------------------------------|
B-----------------------------------------------------------------|
G--(17)--15-17---17-15--------------------------------------------|
D-----------------------17--16----15--15---15---13---15--13-------|
A--------------------------------------------------------------15-|
E-----------------------------------------------------------------|

E--2O-------------19---------2O-|-(2O)----2O--19--2O--15------15-|
B-------------------------------|-------------------------16-----|
G-------------------------------|--------------------------------|
D-------------------------------|--------------------------------|
A-------------------------------|--------------------------------|
E-------------------------------|--------------------------------|

E--16------151615---15---------15-|
B----------------18---------18----|
G---------------------------------|
D---------------------------------|
A---------------------------------|
E---------------------------------|

E--151618--151618--1516181615------16------151615-------15-----|
B------------------------------18------18-----------18------18-|
G--------------------------------------------------------------|
D--------------------------------------------------------------|
A--------------------------------------------------------------|
E--------------------------------------------------------------|

E------------------------------15--(15)----(15)-----------------|
B--16-------18-----16--18--16-----------------------15-----(15)-|
G------17-------------------------------------------------------|
D---------------------------------------------------------------|
A---------------------------------------------------------------|
E---------------------------------------------------------------|

E--2O--------------19--------2O-|-(2O)---2O--19----2O--15------15-|
B-------------------------------|--------------------------16-----|
G-------------------------------|---------------------------------|
D-------------------------------|---------------------------------|
A-------------------------------|---------------------------------|
E-------------------------------|---------------------------------|
                                                           
E--16------15-----------------------|----------------------------|
B------------18-16--18-----------16-|--15-----------(15)---------|
G-----------------------------------|----------------------------|
D-----------------------------------|----------------------------|
A-----------------------------------|----------------------------|
E-----------------------------------|----------------------------|

feedback
E------------------------------------|
B--(15)-------------(15)-------------|
G------------------------------------|
D------------------------------------|
A------------------------------------|
E------------------------------------|
 by Gaetz Hammond
            
Submit corrections

comments powered by Disqus
↑ Back to top | Guns N Roses Tabs for November Rain. Lyrics for acoustic guitar and electric guitar. 1 Tablatures and chords are parodies/interpretations of the original songs. You may use it for private study, scholarship, research or language learning purposes only