>
 >
November Rain 13

November Rain 13 Guitar Tabs

Guns N Roses - November Rain 13 chords, tabs, tablatures, lyrics

Guitar lessons | Add/correct | Request | Top 50 tabs Artists:  A B C D E F G H I J K L M N O P Q R S T U V W X Y Z 0-9

November Rain 13 Guitar Tabs – Guns N Roses

CD, Sheet music, Poster

Do you like November Rain 13? Share with your friends now
Bass TabsChordsChords v2Chords v3Chords v4Chords v5Chords v6Drum TabsTabsTabs v2Tabs v10Tabs v11Tabs v12Tabs v13Tabs v16Tabs v3Tabs v4Tabs v5Tabs v6Tabs v7Tabs v8Tabs v9Ukulele
            Guns N' Roses - November Rain                                   


                                                                  
SOLO 1

      W                   W                   W                 
D#||-------------------|-------------------|-------------------|
A#||-------------------|-------------------|-------------------|
F#||-------------------|-------------------|-------------------|
C#||-------------------|-------------------|-------------------|
G#||-------------------|-------------------|-------------------|
D#||-------------------|-------------------|-------------------|


           prebend/hold                PO    
  Q.       S            S E  S S    E  S  S  
-----------------------------8--------------|
--8pb------8brb---------L-L----8pbr-L--L--6-|
--------------------------------------------|
--------------------------------------------|
--------------------------------------------|
--------------------------------------------|


              prebend                        
  S    S Q    S       S E  S S    S S S   S  
---------------------------8----------------|
--8brb-L-L----8brb----L-L----8pbr-L-L-5br-L-|
--------------------------------------------|
--------------------------------------------|
--------------------------------------------|
--------------------------------------------|


                        rebend/release                                      
  Q.      E   Q    S    S              E     Q.      S  S S  S S   S E  E   
----------8~--L---------------------------|--------------------------------|
--L~---------------5brb-L--------------L--|--5~----------------8-----------|
------------------------------------------|----------7p-5-7s-9---9g7-L--5--|
------------------------------------------|--------------------------------|
------------------------------------------|--------------------------------|
------------------------------------------|--------------------------------|


           prebend/hold                PO    
  Q.       S            S E  S S    E  S  S  
-----------------------------8--------------|
--8pb------8brb---------L-L----8pbr-L--L--6-|
--------------------------------------------|
--------------------------------------------|
--------------------------------------------|
--------------------------------------------|


              prebend                   
  S    S Q    S       S E  S S   E  E   
---------------------------8-8br-L--L--|
--8brb-L-L----8brb----L-L--------------|
---------------------------------------|
---------------------------------------|
---------------------------------------|
---------------------------------------|


              start releasing                 
   H          E               E  S   S  S  S  
--10br--------L---------------L--8h-10p-8----|
------------------------------------------10-|
---------------------------------------------|
---------------------------------------------|
---------------------------------------------|
---------------------------------------------|


     fast bend                               
  S  E.       Q     S   S  S  S   S  S  E    
--8----------------13p-12----13p-12----13b--|
----11b~------L-----------13--------13------|
--------------------------------------------|
--------------------------------------------|
--------------------------------------------|
--------------------------------------------|


   H         E   S  S  E   S   T   T     Q.       S  S  S   E.  S S  S  S  
--13~--------L-----12-13--12h-13p-12-|------------------------------------|
----------------15-------------------|--15~------15-17-18br-L---L-L-18-17-|
-------------------------------------|------------------------------------|
-------------------------------------|------------------------------------|
-------------------------------------|------------------------------------|
-------------------------------------|------------------------------------|


   E    Q      H           S  S  
--------------19b~--------19-19-|
--17b--17~----------------------|
--------------------------------|
--------------------------------|
--------------------------------|
--------------------------------|


   S   S  S  S   S  S  S   S  S  S   S  S  S   T   T  E   
--19s-17-17-17s-15-15-15s-13-13-13s-12-12-12h-13p-12-----|
-----------------------------------------------------15--|
---------------------------------------------------------|
---------------------------------------------------------|
---------------------------------------------------------|
---------------------------------------------------------|


      Q.      E   S  S  S   T   T  S   S  S  S  
--12g13~------L--12-13-12h-13p-12--------12----|
----------------------------------15p-13----13-|
-----------------------------------------------|
-----------------------------------------------|
-----------------------------------------------|
-----------------------------------------------|


   S   T   T  S  S  S   S  S   T   T  S   S  S  S  S  S  S  S  
--------------------------------------------------------------|
--15h-17p-15-13-15-12h-13-12h-13p-12--------12----10----------|
-------------------------------------14p-12----12----10-12-10-|
--------------------------------------------------------------|
--------------------------------------------------------------|
--------------------------------------------------------------|


  Q      S  T   T  S  S   Q     S   T   T  S  S   
-------------------------------------------------|
---------------------13~--L------------------13~-|
--9~-----L-12p-10S-9-----------10h-12p-10S-9-----|
-------------------------------------------------|
-------------------------------------------------|
-------------------------------------------------|


                      Hold bend                                        bend up 
  Q     S   T   T  S  S        Q     S  S     E      H.            E   E       
------------------------------------15-----------|----------------------------|
--L------------------15b-------L-------15pbr--L--|--13b------------L---L------|
-------10h-12p-10S-9-----------------------------|----------------------------|
-------------------------------------------------|----------------------------|
-------------------------------------------------|----------------------------|
-------------------------------------------------|----------------------------|


  Q    Q    Q    S  S  S S    E  E  E  H        S  S    E  Q    H         S  S  
---------------------------|-------------------------|-------------------------|
--L----L-------------------|--6--5-------------------|----------6b--------6p-5-|
-----------------5h-7p-5---|--------5-----------5h-7-|-------------------------|
-------------------------7-|-----------7-------------|--7--5-------------------|
---------------------------|-------------------------|-------------------------|
---------------------------|-------------------------|-------------------------|


  E  E  E  H        E     S  H        E  S S  S  S S    E  E  E  E  H         
-----------------------|-----------------------------|-----------------------|
--6--5-----------------|-----------------------------|--6--5-----------------|
--------5--------------|--5h-7--------L----5h-7p-5---|--------5--------------|
-----------7--------L--|-----------------7---------7-|-----------7--L--------|
-----------------------|-----------------------------|-----------------------|
-----------------------|-----------------------------|-----------------------|

                                                    
                                                    SOLO 2
                                                                      Hold     
  Q    Q     Q     Q        Q     Q     Q     Q        H.             E.    S  
------------------------|--------------------------|-----------------------20-|
------------------------|--------------------------|--18~------------20b------|
--7----9----10----12----|--14----16----17----19----|--------------------------|
------------------------|--------------------------|--------------------------|
------------------------|--------------------------|--------------------------|
------------------------|--------------------------|--------------------------|


   fast release             bend up                                  
   S            H        S  E.      S  E      Q.       E   H         
-----------------------------------20-----|-----------19b--L--------|
--20pbr---------L--------L--L---------18--|--17~--------------------|
------------------------------------------|-------------------------|
------------------------------------------|-------------------------|
------------------------------------------|-------------------------|
------------------------------------------|-------------------------|


                rebend                    release                   
  Q    Q    E   Q        E      H         E       S  S  S  S  S  S  
--L----L---------------------|-------------------------------17----|
---------------17brb-----L~--|--L---------L---------17-18-20----18-|
-----------------------------|-------------------19----------------|
-----------------------------|-------------------------------------|
-----------------------------|-------------------------------------|
-----------------------------|-------------------------------------|


   S  S  S  S  E     E   E.     S  S   S  S  S  
-----------------------------------------------|
--20-17-18-20-17br---L--15br---13-15p-13----13-|
-----------------------------------------14----|
-----------------------------------------------|
-----------------------------------------------|
-----------------------------------------------|


   S  S S  E.    S  S  S  S S  E.    S  S  
--15------------------15------------------|
-----13---13~------13----13---13~------13-|
----------------14------------------14----|
------------------------------------------|
------------------------------------------|
------------------------------------------|


   E    E   S   T   T  S  S  S   T   T  S  S  E    S  S    Q     H.             
--15b--15--13h-15p-13-12-13-12h-13p-12----12------15----|----------------------|
---------------------------------------15----15b-----15-|--L----13~------------|
--------------------------------------------------------|--L-------------------|
--------------------------------------------------------|----------------------|
--------------------------------------------------------|----------------------|
--------------------------------------------------------|----------------------|


OUTRO

  H        Q    E  S S    W                   W                 
-----------------------|-------------------|-------------------|
-----------------------|-------------------|-------------------|
-------------------x-x-|--5----------------|--L----------------|
-------------------x-x-|--5----------------|--L----------------|
-------------------x-x-|--3----------------|--L----------------|
-----------------------|-------------------|-------------------|


  W                   H.           S S S S    W                 
-------------------|-----------------------|-------------------|
-------------------|-----------------------|-------------------|
--5----------------|--L------------L-x-x-x-|--5----------------|
--5----------------|--L------------L-x-x-x-|--5----------------|
--3----------------|--L------------L-x-x-x-|--3----------------|
-------------------|-----------------------|-------------------|


  S S S E  E  S S S S E  E  S     H          Q.       E    
------------------------------|--19b--------19~------20b--|
------------------------------|---------------------------|
--5-5-x-5--5--5-5-5-x-5--5--5-|---------------------------|
--5-5-x-5--5--5-5-5-x-5--5--5-|---------------------------|
------------------------------|---------------------------|
------------------------------|---------------------------|


   Q     E   E   E   E   E   E      Q.       T   T   T  T  Q.       S  S  
---L----20--19--20--15------15--|--16~------15h-16p-15----15~------13-15-|
------------------------16------|----------------------18----------------|
--------------------------------|----------------------------------------|
--------------------------------|----------------------------------------|
--------------------------------|----------------------------------------|
--------------------------------|----------------------------------------|


   S  S  T   T   T  T  S  S  S   T   T  S  S  S  S  S  S  S  S  
--16-15-16p-15p-13----------13h-15p-13-------------------------|
-------------------16-13-16------------16-18-15-16-18-16-15-16-|
---------------------------------------------------------------|
---------------------------------------------------------------|
---------------------------------------------------------------|
---------------------------------------------------------------|


                                         wide vibrato 
   S    S  S  S  S  S  S  S  S  S  S  S  Q            
-----------------------------------------------------|
--15br--L--L--L----15-16-18-15-16-18-15--------------|
----------------17----------------------17~----------|
-----------------------------------------------------|
-----------------------------------------------------|
-----------------------------------------------------|


   H          Q.       E      Q     E   E   E   E   E   E   
--19b--------19~------20b--|--L----20--19--20--15------15--|
---------------------------|-----------------------16------|
---------------------------|-------------------------------|
---------------------------|-------------------------------|
---------------------------|-------------------------------|
---------------------------|-------------------------------|


                                   |---3---|  
   Q.       T   T   T  T  Q.       S   S   S  
--16~------15h-16p-15----15~-----------------|
----------------------18----------15h-16h-18-|
---------------------------------------------|
---------------------------------------------|
---------------------------------------------|
---------------------------------------------|


                       |--3--|                                                  
   S  S  T   T   T  T  S  S  S  T  T  T   T  S  T  T  T   T   T  T  T   T  T   T
--15-16-15h-16p-15-------15-------15----------------------------15-16p-15-------
-------------------18-16----16-18----18p-16-18-16----15h-16h-18-----------18p-16
--------------------------------------------------17----------------------------
--------------------------------------------------------------------------------
--------------------------------------------------------------------------------
--------------------------------------------------------------------------------


   T  T   T  T  T  T  T  T  S  S  T  T   T  S. T   T   T   T   T   T  Q      
--15------------------------------------------------------------------------|
-----18p-16----15-16-18-15----16-15-----------------------------------------|
------------17-------------17-------17p-15-17-15p-13h-15p-13h-15p-13--------|
---------------------------------------------------------------------12~----|
----------------------------------------------------------------------------|
----------------------------------------------------------------------------|


   H          Q.       E      Q     E   E   Q.       S  S  
--18b--------19~------20b--|--L----20--19-----------------|
---------------------------|---------------15b------15----|
---------------------------|---------------------------17-|
---------------------------|------------------------------|
---------------------------|------------------------------|
---------------------------|------------------------------|


   Q.       S  S  Q.       E      S  S  E    Q     E.   S  S  S  S  S  
------------------------------|--------20~---L-----L---20-15-20-19-20-|
--15b------15----18b------16--|-----16--------------------------------|
--------------17--------------|--17-----------------------------------|
------------------------------|---------------------------------------|
------------------------------|---------------------------------------|
------------------------------|---------------------------------------|


   S  S  S  S  S  T   T  S  S  S  S  S  S  S  S  S  S  
--15-18-16-18-15-16p-15----15-------15----15----15----|
------------------------18----16-18----16----16----16-|
------------------------------------------------------|
------------------------------------------------------|
------------------------------------------------------|
------------------------------------------------------|


   H          Q.       E      Q     E   E   E   E   E   E   
--19b--------19~------20b--|--L----20--19--20--15------15--|
---------------------------|-----------------------16------|
---------------------------|-------------------------------|
---------------------------|-------------------------------|
---------------------------|-------------------------------|
---------------------------|-------------------------------|


   Q.       T   T   T  T  Q.       S  S  
--16~------15h-16p-15----15~---------15-|
----------------------18----------18----|
----------------------------------------|
----------------------------------------|
----------------------------------------|
----------------------------------------|


   Rebend                                
   E      Q.       E    S  S  S  S  E    
--18brb---L~-------L~--15----15---------|
--------------------------16----16------|
-----------------------------------17~--|
----------------------------------------|
----------------------------------------|
----------------------------------------|


  E   S  S  S  S  S  S  S  S  S  S  S  S  E      H          Q.       E    
---------------------------------------------|--19b--------19~------20b--|
---------------------------------------------|---------------------------|
--L--15-17-17-15-----------------------------|---------------------------|
-----------------17-16-15-15-15-13-15-13-----|---------------------------|
-----------------------------------------15--|---------------------------|
---------------------------------------------|---------------------------|


  Q     E   E   E   E   E   E      Q.       T   T   T  T  Q.       S  S  
--L----20--19--20--15------15--|--16~------15h-16p-15----15~---------15-|
-----------------------16------|----------------------18----------18----|
-------------------------------|----------------------------------------|
-------------------------------|----------------------------------------|
-------------------------------|----------------------------------------|
-------------------------------|----------------------------------------|


   T   T   S  T   T   S  T   T   T   T   S  S  S  S  S   T   T  S  S  S   S  
--15h-16h-18-15h-16h-18-15h-16h-18p-16p-15----16----15h-16p-15----15--------|
-------------------------------------------18----18------------18----18br-L-|
----------------------------------------------------------------------------|
----------------------------------------------------------------------------|
----------------------------------------------------------------------------|
----------------------------------------------------------------------------|


   S  S  E   S  S  S  S    S S  E    S   S  E      H          Q.       E    
---------------------15br--L-L--L~-------------|--18b--------19~------20b--|
--16----18--16-18-16----------------15br-L--L--|---------------------------|
-----17----------------------------------------|---------------------------|
-----------------------------------------------|---------------------------|
-----------------------------------------------|---------------------------|
-----------------------------------------------|---------------------------|


                                            |--3--|                 
  Q     E   E   E   E   E   E      Q.       S  S  S  Q.       S  S  
--L----20--19--20--15------15--|--16~------15----------------------|
-----------------------16------|--------------18-16-18br------L-16-|
-------------------------------|-----------------------------------|
-------------------------------|-----------------------------------|
-------------------------------|-----------------------------------|
-------------------------------|-----------------------------------|


          release              fdbk.      bend up                            
                               <                                             
   E      Q.      H            H          H                                  
---------------------------|--22b---------L--------|-----------|-----------||
--15brb---L-------L--------|---L----------L--------|-----------|-----------||
---------------------------|-----------------------|-----------|-----------||
---------------------------|-----------------------|-----------|-----------||
---------------------------|-----------------------|-----------|-----------||
---------------------------|-----------------------|-----------|-----------||




Duration Legend
---------------
W - whole
H - half
Q - quarter
E - 8th
S - 16th
T - 32nd
X - 64th
. - note dotted
|-n-|  - n-tuplets


Tablature Legend
----------------
L - tied note
x - dead note
g - grace note
(n) - ghost note
> - accentuded note
NH - natural harmonic
AH - artificial harmonic
TH - tapped harmonic
SH - semi harmonic
PH - pitch harmonic
h - hammer on
p - pull off
b - bend
br - bendRelease
pb - preBend
pbr - preBendRelease
brb - bendReleaseBend
\n/ - tremolo bar dip
\n - tremolo bar dive
-/n - tremolo bar Release up
/n\ - tremolo bar inverted dip
/n - tremolo bar return
-\n - tremolo bar Release down
S - shift slide
s - legato slide
/ -  slide into from below or out of upwards
\ -  slide into from above or out of downwards
~ - vibrato
W - wide vibrato
tr - trill
TP - tremolo picking
T - tapping
S - slap
P - pop
< - fade in
^ - brush up
v - brush down





Comments


Popular Guns N Roses tabs & chords
Knockin On Heavens Door 3 Bass Tabs
Crash Diet Chords
There Was A Time 2 Chords
Ain't It Fun 1 Tabs
Blues Tabs
Double Talkin' Jive 2 Tabs
Garden Of Eden 1 Tabs
Knocking On Heavens Door (Intro) Tabs
Mr. Brownstone Tabs
You Ain't The First Tabs


Song lyrics



↑ Back to top | Tablatures and chords are parodies/interpretations of the original songs. You may use it for private study, scholarship, research or language learning purposes only
© 2014 AZChords.com Contact us | Privacy policy | DMCA | Add/correct tabs | Request tabs | Top 50 tabs