» » »

Guns N Roses, Nightrain Tabs (ver.5)

Artists:  A B C D E F G H I J K L M N O P Q R S T U V W X Y Z # 

Nightrain Tabs (ver.5)

Guns N Roses Tabs
 Rating:
4/5 (4 votes)
Nightrain  lessons Tabs too difficult? Try these video lessons and learn fast
                (Live)
(Intro)
-------------------------------------------------------------------------------
                             NIGHTTRAIN - GUNS'n'ROSES
-------------------------------------------------------------------------------

Tuning: down ½ step
Arranged for two guitars
Intro

Gtr.I

e|--------------------------------3-------(3)--3--2p0-------0----(0)------0-|
B|--------------------------------------------------0--7\5--5----(5)----0/5-|
G|--2------------(2)-------(2)/---------------------------------------------|
D|--2------------(2)-------(2)/---------------------------------------------|
A|--0------------(0)-------(2)/---------------------------------------------|
E|--------------------------------------------------------------------------|
Gtr.II

e|--------------------------------8-----------------------------------------|
B|--------------------------------9-------(8)--8--7----7----5----(5)------5-|
G|--------------------------------7-------(9)--9--7----7----5----(5)------5-|
D|--7------------(7)----------------------(7)--7--7----7----5----(5)------5-|
A|--7------------(7)-----------0--------------------------------------------|
E|--5------------(5)--------------------------------------------------------|

Gtr.I

e|--(0)--0--0----0----------------------------------------------------------|
B|--(5)--5--3----3\1--1-----(1)--------/3--(3)--3\1--1----0----1--0---------|
G|-------------------------------------------------------------------2----0-|
D|--------------------------------------------------------------------------|
A|--------------------------------------------------------------------------|
E|--------------------------------------------------------------------------|
Gtr.II

e|-----------------------1--(1)---------3--(3)--3-3--3----3----3--3---------|
B|--(5)--5--3----3-------1--(1)---------3--(3)--0-4--5----4----5--4--2----0-|
G|--(5)--5--4----4-------2--(2)---------0--(0)--5-5--5----5----5--5--2----0-|
D|--(5)--5--5----5----3---------------3/5--(5)------------------------------|
A|--------------------------------------------------------------------------|
E|--------------------------------------------------------------------------|
Gtr.I
                      Load-
e|--------------------------------------------------------------------------|
B|--------------------------------------------------------------------------|
G|--(2)----(2)-----X--8-----------------------------------------------------|
D|--------------------------------------------------------------------------|
A|--------------------------------------------------------------------------|
E|--------------------------------------------------------------------------|
Gtr.II

e|--------------------------------------------------------------------------|
B|--------------------8-----------------------------------------------------|
G|--(2)----(2)----2X--9-----------------------------------------------------|
D|--(2)----(2)----2X--7-----------------------------------------------------|
A|--(0)----(0)----0X--------------------------------------------------------|
E|--------------------------------------------------------------------------|
Gtr.I&II
                                              Gtr.I&II
    in' like a space brain one more time to-night._
e|--------------------------------------------------------------------------|
B|--------------------------------------------------------------------------|
G|------------------------------------------------(2)/2---------------------|
D|------------------------------------------------(2)-----------------------|
A|------------------------------------------------(0)-----------------------|
E|--------------------------------------------------------------------------|
       Look out!   Well, I'm a
e|--------------------------------------------------------------------------|
B|--------------------------------------------------------------------------|
G|--(2)-----------(2)--2-----2----------------------------------------------|
D|--(2)-----------(2)--2-----2----------------------------------------------|
A|--(0)-----------(0)--0--3--0----------------------------------------------|
E|--------------------------------------------------------------------------|
            
Submit corrections

comments powered by Disqus
↑ Back to top | Guns N Roses Tabs for Nightrain. Lyrics for acoustic guitar and electric guitar. Tablatures and chords are parodies/interpretations of the original songs. You may use it for private study, scholarship, research or language learning purposes only