>
 >
Nightrain 6

Nightrain 6 Guitar Tabs

Guns N Roses - Nightrain 6 chords, tabs, tablatures, lyrics

Guitar lessons | Add/correct | Request | Top 50 tabs Artists:  A B C D E F G H I J K L M N O P Q R S T U V W X Y Z 0-9

Nightrain 6 Guitar Tabs – Guns N Roses

CD, Sheet music, Poster

Do you like Nightrain 6? Share with your friends now
Bass TabsBass Tabs v2ChordsDrum TabsDrum Tabs v2Drum Tabs v3TabsTabs v2Tabs v3Tabs v4Tabs v5Tabs v6Tabs v7Ukulele
Band: Guns N Roses

Intro
E----------:
B----------:
G--------2-:
D--------2-:
A--------0-:
E-3/17/0---:

Riff 1
E------------------------------------------------------:
B-8-8--7-x-7-5~--5-5--3-x-3-6~--8-8-5-x-5-3-3-3--------:
G-9-9--7-x-7-5~--5-5--4-x-4-5~--7-7-5-x-5-4-5-4-2-0-2~-:
D-7-7--7-x-7-5~--5-5--5-x-5-3~--5-5-5-x-5-5-5-5-2-0-2~-:
A------------------------------------------------------:
E------------------------------------------------------:

Riff 1A
E----------------------------------------------------------:
B-3/8-8-7p0-7-5~~--3/5-5-3/1-3-1~~--3-3-1p0-1-0~-1-0-------:
G----------------------------------------------------2-0-2-:
D----------------------------------------------------------:
A----------------------------------------------------------:
E----------------------------------------------------------:

Play riff 1 & 1A twice

Riff 2
E----------------------------------------:
B----------------------------------------:
G-2-2----------2-2---------2-2-----------:
D-2-2------x---2-2---------2-2-------x---:
A-0-0-x----x---0-0-x----3b-0-0-x-----x---:
E-------0-3--x------0-3----------0-3---x-: only play bend on A string every second time

Play Riff 2 five times

Riff 3
E---------------------------------------------:
B----3/8-8-7-7/5-5-5-3-1-1p0------------------:
G-7~------------------------2p0-2b-2b-2P.H----:
D-7~------------------------------------------:
A-5~------------------------------------------:
E --------------------------------------------:

Play riff 3 Once
Play riff 2 three times
Play riff 1 & 1A Once


Fill 1
E-----------------:
B-----------------:
G-----------------:
D-5-5-5-5-5-5-5-5-:
A-5-5-5-5-5-5-5-5-:
E-3-3-3-3-3-3-3-3-:

Play fill 1 twice

Riff 4
E---------------:
B---------------:
G-2-2-----------:
D-2-2-----------:
A-0-0-3p0-3p0---:
E-------------3-:

Play riff 4 five times


Riff 5
E-----------------------------------------:
B-----------------------------------------:
G-2-2-------------------------------------:
D-2-2-------------------------------------:
A-0-0-3p0-3p0-------3-2-3-2-0----3-2-3-2--:
E-------------3-1-1-----------3-3--------3:

Play riff 5 once
Play riff 4 five times

Fill 2
E-----------------:
B---------------3-:
G-2-2-----------2-:
D-2-2-----------0-:
A-0-0-3p0-3p0-----:
E-------------3---:

Play fill 2 once

Guitar solo
E-------7----7----7-7----7----7----7-7---------------------------|
B-------7----7----7-7----7----7----7-7--9--9---------------------|
G----9b---9b---9b-----9b----9b---9b-----9b-9b-9pbr-7-9-7-9-7-7~--|
D-x/-------------------------------------------------------------|
A-x/-------------------------------------------------------------|
E----------------------------------------------------------------|

E-/10-9-7---------------------------------------------------|
B---------10-9-7--------------------------------------------|
G----------------9-9b-7-9p7---7-----------------------------|
D---------------------------9---9-7-9/7-7/6-6/4-4-2-4-5-6/7-|
A---------------------------------------------------4-5-6/7-|
E---------------------------------------------------2-3-4/5-|

E-10-10-10----10-10-10----------9-12b----------------------|
B-10-10-10----10-10-10--------10------10-12-12brp10--------|
G-9b-9b-9br-7-9b-9b-9br-7-9/11----------------------11-11~-|
D----------------------------------------------------------|
A----------------------------------------------------------|
E----------------------------------------------------------|

E-------10-10----------10-10-13/14-10-----------|
B-------10-10----------10-10-12/13-10-----------|
G-11----------12-10h11----------------12-10h11--|
D----12-----------------------------------------|
A-----------------------------------------------|
E-----------------------------------------------|

E-----14-----------------------------------------------|
B-17b----17p14-----------------------------------------|
G--------------16brp14----14---------------------------|
D----------------------16----16p14---------------------|
A----------------------------------16-14/13~----12~----|
E--------------------------------------------14--------|

E-------------------------------------------|
B-7-7/6-7-7/6-7-7/6-7-9-10-10-9-9/7-5-5-4-2-|
G-------------------------------------------|
D-7-7/6-7-7/6-7-7/6-7-9-11-11-9-9/7-6-6-4-2-|
A-------------------------------------------|
E-------------------------------------------|

E------4-5----------------------------------------------------0-|
B-----------5br-2-5-------------------------------------------0-|
G-4-4b^^^^r---------4br-2-4p2---2-------------------------------|
D-----------------------------4---4-2-2/4P.H-4-4-2--------------|
A---------------------------------------------------------------|
E--------------------------------------------------0-1-2-2-1-0--|

E-------------0-0-1-2-2-2-1-0----:
B-------------0-0-1-2-2-2-1-0-x/-:
G-----------------------------x/-:
D-----------------------------x/-:
A--------------------------------:
E-0-1-2-2-1-0--------------------:

Play guitar solo once

Riff 6
E-----------------------------------------------------:
B-8-8-7x7x7-5~-5-5-3x3x3-6~-8-8-5x5-3-3-3-------------:
G-9-9-7x7x7-5~-5-5-4x4x4-5~-7-7-5x5-4-5-4-2-0-2-2bP.H-:
D-7-7-7x7x7-5~-5-5-5x5x5-3~-5-5-5x5-5-5-5-2-0-2-------:
A-----------------------------------------------------:
E-----------------------------------------------------:

Play riff 6 once
Play riff 4 Once

Guitar solo 2
E----------------------------------------------------------------------|
B----------------------------------------------------------------------|
G-2-2------------------------------------------------------------------|
D-2-2------------------------------------------------------------------|
A-0-0-3p0-3p0-------3-2-3-2----3-2-3-2-0----3-2-3-2-0---3-2-3-2-0------|
E-------------3-1-1---------3-1----------3-3----------3-----------3-3--|b

E----------------------------------------------------------------------|
B----------------------------------------------------------------------|
G---------------------2~-2-2-2-2-2-2b~-2-2-2-2-2-2b~-2-2/5-5-4-4-4-4-4-|
D----------------------------------------------------------------------|
A-3-5-5b-3-5p3---3b----------------------------------------------------|
E--------------5----5~-------------------------------------------------|

E-----------------------------------------------------------|
B-----------------------------------------------------------|
G-/7~-5-9b-9b----9-12p9----9--------------------------------|
D-------------12--------12---12p9----9----------------------|
A---------------------------------12---12p10----------------|
E--------------------------------------------12-11-10//////-|

E-------------------------------8---------------------5-----------|
B-------------8b-------------8b^^^8b-------------5P.H---7-5-------|
G-7b-7b-7br-5----7b-7b-7br-5---------7b-7b-7br-5------------7br-5-|
D-----------------------------------------------------------------|
A-----------------------------------------------------------------|
E-----------------------------------------------------------------|

E-------------------------------5-8-----------------8-10--------------|
B----------------------------8b-----8b-8b-8br-5-10b------10b-10b-10br-|
G----------------7b-7b-7br-5------------------------------------------|
D-7-5-----------------------------------------------------------------|
A-----7-6-5-3b--------------------------------------------------------|
E--------------5------------------------------------------------------|

E----------------------------------------------------------------------|
B-8-13b-13-12-13-12h13p12p10-12p10----10-------------------------------|
G----------------------------------12----12p9---9----------------------|
D---------------------------------------------12--12p9-----------------|
A------------------------------------------------------12p10-----------|
E------------------------------------------------------------12p11p10--|
E----------------------------------------------------------------------|
B----------------------------------------------------------------------|
G------------------------------7----9----7h9-10/12-9h10p9---9h10h12----|
D--------------------7-10-9h10---10---10------------------12-----------|
A-----3-5p3--3-5/8-8---------------------------------------------------|
E-3~-5------5----------------------------------------------------------|

E----------10----12----10h12-13b-13-12-13-12h13p12p10-12-12p10/8-|
B-10h12h13----13----13-------------------------------------------|
G----------------------------------------------------------------|
D----------------------------------------------------------------|
A----------------------------------------------------------------|
E----------------------------------------------------------------|

E---10---7h8h10-8-7------------------------------10-----------|
B-10--10------------12b-12pbr-12br-10-10~-10-13b----13p10-13b-|
G-------------------------------------------------------------|
D-------------------------------------------------------------|
A-------------------------------------------------------------|
E-------------------------------------------------------------|

E-12-15-15-----------------15--------12-15-13h15p13-12-13p12----12-|
B----------15b-13-15-12-10----16-15b-------------------------15----|
G------------------------------------------------------------------|
D------------------------------------------------------------------|
A------------------------------------------------------------------|
E------------------------------------------------------------------|


E--------------------15---------------------20b-20br-17-20-20p17----17-|
B-15p13p12-13p12-15b^^^^15br-12-20b-20br-17----------------------20----|
G----------------------------------------------------------------------|
D----------------------------------------------------------------------|
A----------------------------------------------------------------------|
E----------------------------------------------------------------------|

E-------------------------------------------------------------------|
B-20p17---17--------------------------------------------------------|
G------19----19brp17-19-17----17-19br-19br-19br-19br-19br-19br-19br-|
D--------------------------19---------------------------------------|
A-------------------------------------------------------------------|
E-------------------------------------------------------------------|

E-----------:
B-----------:
G-17-17~~~~-:
D-----------:
A-----------:
E-----------:





Comments


Popular Guns N Roses tabs & chords
Its So Easy Bass Tabs
Oh My God Bass Tabs
Patience Bass Tabs
Paradise City Chords
Sorry 1 Chords
Chinese Democracy 4 Tabs
Hair Of The Dog Tabs
Nightrain 3 Tabs
Sympathy For The Devil Tabs
Patience Ukulele


Song lyrics



↑ Back to top | Tablatures and chords are parodies/interpretations of the original songs. You may use it for private study, scholarship, research or language learning purposes only
© 2014 AZChords.com Contact us | Privacy policy | DMCA | Add/correct tabs | Request tabs | Top 50 tabs